Начало и Припев:
--------------|
--------------|
--------------|
|-0-2--0-2--0-2--0-2/7-0--|
|-0-2--0-2--0-2--0-2/7-0--|
|-0-2--0-2--0-2--0-2/5-0--|

Куплет:
-----|------|
-----|------|
-----|------|
|-0-0----0-0-0-0-|-5^r--|
|-0-0----0-0-0-0-|------|
|-0-0----0-0-0-0-|------|

P.S.Это приблизительно столько ударов, надо просто прослушать песню еще раз и играть 
вместе с Ramm-ом.




Текст, аккорды и табулатура для песни "Das Alte Leid", исполняет "Rammstein".
Используемые в песне аккорды можно найти в разделе Как брать аккорды. Аккорды для шестиструнной гитары. Другие песни можно найти на нашем сайте, воспользовавшись алфавитным указателем вверху страницы.


 
Ошибка в тексте? Выделите ошибку и нажмите Ctrl+Enter