Вступление: (играется на клавишных)

    Cm            Fm        Cm        Fm       Gm        Fm      
 e|-------------|----------|---------|--------|---------|--------|-
 h|-------------|----------|---------|--------|---------|--------|-
 g|-1-----------|----------|---------|-----1--|-------0-|-1-0----|-
 d|-------0-1-3-|----1-0-1-|---0-1-3-|--------|---------|-----3--|-
 a|----3--------|----------|-3-------|--------|---------|--------|-
 e|-------------|-4--------|---------|-4------|-3-------|-4------|-

    Gm        Fm
 -e|---------|--------|
 -h|---------|--------|
 -g|----0----|-1------|
 -d|---------|--------|
 -a|---------|-3------|
 -e|-3-------|-4------|


1 куплет (вступает ритм-гитара)


  повторяется 3 раза             4-ый раз
   Cm            B       Fm         Cm            B
 e|--------------|---------------||------------|---------||
 h|--------------|---------------||------------|---------||
 g|--------------|-----------1-0-||------------|---------||
 d|----1----1----|----3----------||---1----1---|-----3---||
 a|-3-----3----3-|-1-----3-3-----||-3----3---3-|-1-------||
 e|--------------|---------------||------------|---------||

 после вместе ритм-гитарой вступает соло-гитара

 Cm                         B Fm
Die Liebe ist ein wildes Tier 
Sie atmet dich, sie sucht nach dir 
Nistet auf gebrochenem Herzen    
Geht auf Jagd bei Kuss und Kerzen 
 
Saugt sich fest an deinen Lippen 
Grabt sich Gange durch die Rippen 
Lasst sich fallen weich wie Schnee 
Erst wird es heiss dann kalt am Ende tut es weh 

Припев:
Cm      Fm       
Amour,Amour 
Cm        Fm       
Alle wollen nur dich zahmen 
Gm        Fm      
Amour, Amour am Ende 
Gm        Fm      
Gefangen zwischen deinen Zuhnen 

Die Liebe ist ein wildes Tier 
Sie beisst und kratzt und tritt nach mir 
Ндlт mich mit tausend Armen fest 
Zerrt mich in ihr Liebesnest 
FriЯт mich auf mit Haut und Haar 
Und wьrgт mich wieder aus nach Tag und Jahr 
LдЯт sich fallen weich wie Schnee 
Erst wird es неiЯ dann kalt am Ende tut es weh 

припев

Die Liebe ist ein wildes Tier 
Sie ahnt dich, sie sucht nach dir 
Nistet auf gebrochenem Herzen 
Geht auf Jagd bei КuЯ und Kerzen 
FriЯт mich auf mit Haut und Haar 
Und wьrgт mich wieder aus nach Tag und Jahr 
LдЯт sich fallen weich wie Schnee 
Erst wird es неiЯ dann kalt am Ende tut es weh 

припев

Die Liebe ist ein wildes Tier 
In die Falle gehst du ihr 
In die Augen starrt sie dir 
Verzaubert wenn ihr Blick dich trifft 

Bitte, bitte, gib mir Gift! 


Текст, аккорды и табулатура для песни "Amour", исполняет "Rammstein".
Используемые в песне аккорды можно найти в разделе Как брать аккорды. Аккорды для шестиструнной гитары. Другие песни можно найти на нашем сайте, воспользовавшись алфавитным указателем вверху страницы.


 
Ошибка в тексте? Выделите ошибку и нажмите Ctrl+Enter