Прошу прощения, но вступление я пока не подобрал. 
Если кому-то нужны ноты для флейты или для скрипки, то пишите, вышлю.


             |Куплет
             |
E---------2-----|--------0-----------------|
B|--------0--|--------0--------------3--0--------1-----|
G0--------------------------0--|
D|-----0-----------0--------------2--------|
A|--2-----------------------|--0-----------3-----------|
E||----------0-----------|--3-----------2--------------------------|



--------------------------|--0-------------------------------2-----|
--------3-------------------------------0-----------3--|
-----------2-----------0--|-------0--------------0-----------------|
-----0--------------2-----|----------2--------2-----|--------0--------0--------|
-----------------2-------------2-----------------------|
--2-----------0-------------0-----------|--3-----------2-----------|



--------0-------------0--------------------|
----------------------------|--------3-----------------|
-----------2-----0-------0--2-----------0--|
-----2-------2-----2--------|-----0--------------2-----|
--0------------3------------------2--------|
----------------------------|--2-----------0-----------|


       |Припев
       |
--0---------------------------------3--------------0--|
-------------------1----|--------3-----------0-----|--0-----------------------|
-------0----------------2--------------|-----0--------------------|
----------------2-------|-----0-----------0-----------------2-----|
----------2--3-------------------------------2--------|
------------------------|--2-----------3-----------|--------3--2--0-----------|



-----------------------2--|--3--2--0-------------------------------|
--------2-----------3-----3-------------|--------3--------------0--|
-----2-----0-----2-----------------0----2--------0-----|
--------------0-----------------2-------|--0--------------0--------|
--0--------------------------3-------------------------|
-------------------------------------------3-----------|



--3----------------------|--0--------0-------------------||
-----0----------------1--1-------------------||
--------0----------0-----2-------------------||
----------------2--------2-------------------||
-------------3-----------0-------------------||
---------------------------------------------||


             |Поигрыш
             |
E|--0----------------------|-------0------------------|
B|-----0----------------0--|--3--------------------3--|
G|--------0--|--------0----------0-----|----------0---------2-----|
D-----2---------2----0--------|
A|--2----------3--------------------------|
E||----------0----------------------------2-----------|


                                                                               
--3----2----------------|--0-----------------------|--2-----------------------|
------------------------|-----0--------------1-----|-----1-----1--------------|
---------------------0--|--------0--------2-----2--|--------2--------------0--|
------------------2-----2-----------------------2-----|
---------------2-----------0-----------------2--------|
------------0-----------------------------0-----------|


                                                                               
--0---------------------|--0---------------------0----------------|
-------0-------------1--|-------1-------------0-----|----1--------------------|
------------------0-----|---------0-----------------|-------2--------------0--|
---------------2---------------2--------|----------2--------2-----|
------------3-----------3-2-0----------------2--------|
------------------------------------------0-----------|


                                                                              
--0-------------------2--|--------0--------------2--|--3----0-------------2--|
-------0-----------3-----1--------3------------1-----|
----------0-----2--------------2------------2--------|
----------------------------0------------0-----------|
-------------------------|--3------------------------------------|
-------------2---------------------------------------|


                      
--3----2------------||
--------------------||
--------------------||
--0----0------------||
--------------------||
--------------------||


Текст, аккорды и табулатура для песни "Rainbow Eyes", исполняет "Rainbow".
Используемые в песне аккорды можно найти в разделе Как брать аккорды. Аккорды для шестиструнной гитары. Другие песни можно найти на нашем сайте, воспользовавшись алфавитным указателем вверху страницы.


 
Ошибка в тексте? Выделите ошибку и нажмите Ctrl+Enter