------------------------|
------------------------|
|-----2-|-7s====5-----------4s==5-|-4s3---2---------------2-|
|-2---------------------------2-----|
------------------------|
------------------------|


        ~
--------------|
--------------|
|-7-----5-----------4s==5-|
--------------|
--------------|
--------------|




      ~~~~~~~~                        ~
-------------------------------|
----------------5-|-6s====5----------------|
|-4s5s4---(4)-----------5---------------5--|
----------5---------------5----|
-------------------------------|
-------------------------------|




        ~                           ~             ~~~~~~
--------------------------------------|
--------------------------------------|
|-9s====7-------------9---7-|-7s5---5-------4s3-|-2-(2)---------------2-5-|
--------------------------------------|
--------------------------------------|
--------------------------------------|


                    ~
----------------------|
--3---5-6-------8---6-|
|-7-----(7)-----------------------|
----------------------|
----------------------|
----------------------|



      ~~~~~~~~~~~~~~~~                  ~~
----------------------------------------|
|-5s6s5-----------(5)-----10-12---13-|-12---------------13s12---|
------------9---------------------------|
----------------------------------------|
----------------------------------------|
----------------------------------------|



          ~~                   ~                         ~
----------------------------------------|
|-12s====10-----------------------------------------|
---------2-|-7-----5-----------4---5-|-4s3---2---------------2--|
-------2-------------------------2------|
----------------------------------------|
----------------------------------------|



        ~                       ~~~~~~~~
------------------------------|
----------------------------5-|
|-7-----5-----------4---5-|-4s5s4---(4)-----------5---|
------------------------5-----|
------------------------------|
------------------------------|



                            ~
--------------------|
|-6s5s==6s==5s==6s==5s6-----5---|
--------------------|
--------------------|
--------------------|
--------------------|



                    ~~~~~~~~~~~~~~~~~~~~~~        ~~~~~~~~~~~~
--------------------------------------------|
--------------------------------------------|
|-9-9---9---9s7---9s7-------(7)-9---|-(9)-----7-5-5-(5)---(5)-5-7-9-|
--------------------------------------------|
--------------------------------------------|
--------------------------------------------|




   ~~~~~~~~~~~           ~~
--------------------------|
----------------------13--|
|-10-----(10)---10s==12-14-----14-----|
--------------------------|
--------------------------|
--------------------------|




                  ~~~~~~~
---------------------------|
|-15-----15---13-15-(15)---------15-15-|
---------------------------|
---------------------------|
---------------------------|
---------------------------|



                                            ~~~~~~~~~~~~~~~
---------------------------------------------|
|-15-13-13-13s==12---12-----10-0-12-0-|-13s12---------(12)-12-13s12--|
--------------9------------------------------|
---------------------------------------------|
---------------------------------------------|
---------------------------------------------|


                             Q=126

          ~~
-------------------|
|-12s====10--------------------|
-----------------|--------6-7--|
----------------|----------5-|-7----7------|
---------------|-5------5-7-|-8------8-----|
-------------------|


  
-----------------------------------|
---------------------------------|----------10-|
|-7-6h7p6h7p6h7p6h7p6h7p6h7p6h7p6h7p6h7s5-7----|
---------------------------------|--------7----|
--------------------------------|-5------5-7-|-8-----------|
-----------------------------------|


                                                            ~~
|-9-10-9-10-9-10-9h10p9h10p9h10p9h10p9h10p9h10p9h10p9h10-|-------|
---------------------------------------------|-10----|
---------------------------------------------|-------|
---------------------------------------------|-------|
---------------------------------------------|-------|
---------------------------------------------|-------|


--------------|
--------------|
--------|-5--2-----------|-4s==2p0----|
|-8-7-5-----------|-5h7p5--4----|------4-2-1-2-3--|
|-------7-5s4-5-7-|--------5----------|
--------------|


-|
|-6----6--5--|-3---------|
|-7----7--5--|-4---------|
|-9----9--7--|-6--------|-3----3--2--|-0---------|
-|------3----|
-|


             1/
                                  ~~
-------|
-------|
-7-|-7s===5p===|=0-------5-7-5-|
|----------7---|-------7-------|
|----------|---------7-----|-----7---------|
|-0--------|-0-----------------|


      ~~
-------------|
-------------|
|-7s5s7p=====|=0-------7-7p5-7p5---5-|
-|-------7-----------7---|
-|-----7-----------------|
-------------|


--------------------5-----|
------------------5---10--|
|-5s4---4-5s4---5-7p5---5-7-8---------|
|-----7-------7-------7---------------|
--------------------------|
--------------------------|


|---------7----8p7----8p7-------------------------------|
|-(10)-10---10-----10-----10-8p7s5-8p7p5----------------|
-----------------------------8p7p5-7-|-7----(7)-7-7-7-7-|
--------------------------------------------|
--------------------------------------------|
--------------------------------------------|


------------------------------------|
------------------------------------|
|-(7)-----5-7--7--|-7h9p7h9p7h9p7h9p7h9p7h9p7s5-7---5h7p5--|
------------------------------------|
------------------------------------|
------------------------------------|


--------8-10-8h10p8-12-|
------8----------------|
|-(5)---(5)-(5)-9------------------|
-----------------------|
-----------------------|
-----------------------|


|-(12)--10----------------------|----------19-19--17---16-|
|----------13p12p10s9--10-9-----|-------17----------------|
----------------9--|----17-------------------|
----------------------------------|
----------------------------------|
----------------------------------|


|-17------8-10-12-|-(12)--10p8-----------8-|
|-------10----------10-(10)-----|
--------------------|
--------------------|
--------------------|
--------------------|


           ~~~~~~~~
----------8-12-|-(12)---12---10p8------|
|-10---10-10--(10)-10-------------10p8-|
---------------------------|
---------------------------|
---------------------------|
---------------------------|


   ~~
|----------8-10--8--|-10----x-12-13-12-|
|-10----10-----------------|
---------------|
---------------|
---------------|
---------------|


|-17--17--17s15p(15)p12-----------------|
------------15-|-17---17-(17)-15-15-13--|
----------------------------|
----------------------------|
----------------------------|
----------------------------|


   ~~~~~~~~~~        ~~~~~~~~~~
-------12----13-12----13-|
|-15----(15)---17-|-15----(15)----15-------15----|
-------------------------|
-------------------------|
-------------------------|
-------------------------|


                                 ~~~
|-12-----------------------------------|
|----15-13p12----12-13p12--------------|
--14----------14p13-14----|
---------------------------|
---------------------------|
---------------------------|


                              ~~
|-12-10h12p10-8-10-9h10p9h10-----|
-----------------10--|
---------------------|
---------------------|
---------------------|
---------------------|


  Q=63
                                         ~~~~~~~
|--13-12-13-17s==15-|---5-7-8-7h8p7h8-5----------|
----------------10-(10)--|
-------------------------|
-------------------------|
-------------------------|
-------------------------|


                   ~~~~~~                              ~
-----------------------------|------*|
|-6-5h6p5-----------------|-6-5----------------------|------*|
|---------7-5--4s5s4-(4)--|-----7-5-9-7--------------|------*|
----------------7-9-10s9-7s5-|-7----*|
-----------------------------|------*|
-----------------------------|------*|






Tablature Legend
----------------
 h   - hammer-on
 p   - pull-off
 b   - bend
 /  - slide into or out of (from/to "nowhere")
 s   - legato slide
 S   - shift slide
 ~   - vibrato
 =   - connecting device for hammers/pulls
 x   -  muted


Текст, аккорды и табулатура для песни "May Be Next Time", исполняет "Rainbow".
Используемые в песне аккорды можно найти в разделе Как брать аккорды. Аккорды для шестиструнной гитары. Другие песни можно найти на нашем сайте, воспользовавшись алфавитным указателем вверху страницы.


 
Ошибка в тексте? Выделите ошибку и нажмите Ctrl+Enter