Raging Speedhorn - Necrophiliac glue sniffer.
Tabbed by Nick Farichild  [email protected]
  
Artist: Raging Speedhorn
Song: Necrophiliac glue sniffer
Transcribed by: Nick Fairchild
E-mail: [email protected]

E-mail any mistsakes! Enjoy..
Tuning: db ab db
Lots of distortion

Intro:

db----------------------
ab---------------------- X4
db--0--0-9-99--0-4/5-3-- 

Verse:

db--0--0-9-99--0-4/5-3--
ab--0--0-9-99--0-4/5-3-- X14
db--0--0-9-99--0-4/5-3-

Chorus:

db--|-6/7-7-7-7-|4-3--  Play the first bit 3 times then play the
ab--|-6/7-7-7-7-|4-3--  rest.  The slide (from 6 to 7) is quick.
db--|-6/7-7-7-7-|4-3--  Play the chorus 8 times.

Verse X8
Chorus

After the bass solo, play this:

db------------------
ab------------------
db--10-10-12-15-13-

Bridge:

db--0--0-5-6-0-----------------
ab--0--0-5-6-0-----------------  X11
db--0--0-5-6-0-10-10-12-15-13-

Chorus
Verse X8

Ends with:

db---------
ab--7---6--
db---------
 
:: Ultimate Guitar Archive :: 
http://www.ultimate-guitar.com 



Текст, аккорды и табулатура для песни "Necrophiliac Glue Sniffer", исполняет "Raging Speedhorn".
Используемые в песне аккорды можно найти в разделе Как брать аккорды. Аккорды для шестиструнной гитары. Другие песни можно найти на нашем сайте, воспользовавшись алфавитным указателем вверху страницы.


 
Ошибка в тексте? Выделите ошибку и нажмите Ctrl+Enter