Tuned to Drop D

e|---20---17-------------------------|-------|-------|
B|-----13---10--20---18--------------|-------|-------|
G|----------------12---10--21---19---|-------|14^^^^^|
D|---------------------------12---10-|12^^^^^|-------|
A|-----------------------------------|-------|-------|
D|-----------------------------------|-------|-------|
                                   x2
e|----------------------------|----------------------|
B|-10h13-10h13----------------|--15^^^^17^^^^--------|
G|----------------------------|--------------13^^^^^^|
D|----------------------------|----------------------|
A|------------10h12-10h12-----|----------------------|
D|----------------------------|----------------------|


Текст, аккорды и табулатура для песни "Killing In The Name", исполняет "Rage Against The Machine".
Используемые в песне аккорды можно найти в разделе Как брать аккорды. Аккорды для шестиструнной гитары. Другие песни можно найти на нашем сайте, воспользовавшись алфавитным указателем вверху страницы.


 
Ошибка в тексте? Выделите ошибку и нажмите Ctrl+Enter