Rage Against The Machine - Freedom

by Shortys99887

Drop D Tuning [DADGBe]
I'm gonna give you three different solos to play 

[Solo 1: Studio Version]
e|------------------------------------------------------------------------|
B|------------------------------------------------10-11-10----------------|
G|--------10-9-------------------10b--------10h12----------12-10-9~-------|
D|-/15~---------/12--------10h12-----12-----------------------------------|
A|-------------------10h12--------------/15-------------------------------|
D|------------------------------------------------------------------------|

e|----12-13-12-------12-13-12-------12-13-15-15b-15-13-15-13--------22----|
B|--x----------12--x----------12--x--------------------------15-15--------|
G|-x--------------x--------------x----------------------------------------|
D|------------------------------------------------------------------------|
A|------------------------------------------------------------------------|
D|------------------------------------------------------------------------|

[Solo 2: Live at the Grand Olympic Auditorium Version]
e|------------------------------------------------------------------------|
B|---------------------------------------13~---------13~-----------13~----|
G|--------10-9-------------10-7-------------------------------------------|
D|-/15~---------/12-------------10h12h10-----10h12h10-----10h12h10--------|
A|-------------------10h12------------------------------------------------|
D|------------------------------------------------------------------------|

e|--13b13b13b13~--|
B|----------------|
G|----------------|
D|----------------|
A|----------------|
D|----------------|

[Solo 3: Random Live Version]
e|------------------------------------------------------------------------|
B|------------------------------------------------------------------------|
G|------------/10-9-7-9~-----------------------10-10b--9---9--------------|
D|-/15-14-15~------------/10-7-10~-------10h12----------10----12----------|
A|---------------------------------10h12----------------------------------|
D|------------------------------------------------------------------------|

e|-------------------------------------12-13-12-13-12----12-13-12-13-12---|
B|-------------------10h11h10-9-7-9~------------------13----------------13|
G|-------------10h12------------------------------------------------------|
D|-/15-14-15~-------------------------------------------------------------|
A|------------------------------------------------------------------------|
D|------------------------------------------------------------------------|

e|-12-13-15-15b-15b-15b-15b-15b-15b-15b-15b-13----------------------------|
B|---------------------------------------------15-15----------------------|
G|------------------------------------------------------------------------|
D|------------------------------------------------------------------------|
A|------------------------------------------------------------------------|
D|------------------------------------------------------------------------|


Текст, аккорды и табулатура для песни "Freedom (solo ver 2)", исполняет "Rage Against The Machine".
Используемые в песне аккорды можно найти в разделе Как брать аккорды. Аккорды для шестиструнной гитары. Другие песни можно найти на нашем сайте, воспользовавшись алфавитным указателем вверху страницы.


 
Ошибка в тексте? Выделите ошибку и нажмите Ctrl+Enter