Rage Against The Machine
Title: Bombtrack Lead Solo
    Album: Self-titled

------------------------------------------------------------------------|
------------------------------------------------------------------------|
-------------------------------------------x--x--x--x-------------------|
-------------------------------------------x--x--x--x-------------------|
---------------B 1/4----------------------x--x--x--x--------------------|
-2-/-0---2-/-0---5----2-/-0--2-/-0--2-----------------------------------|

---------------------------------------------------------------------|R
---------------------------------------------------------------------|E
---------------------------------------------------------------------|P
---------------------------------------------------------------------|E
----------------1/4b-----------------4-/-0--3-/-0--2-/-0-------------|A
-2-/-0---2-/-0---5----2-/-0--2-/-0-----------------------------------|T

---------------------------------------------Full-Bend------------------------|
------------16----------------------16--14---17--17--17--17--17-(17)----------|
--x--14---x-16--x-14--x-16--x-14--x-16----------------------------------------|
--x--14---x-16--x-14--x-16--x-14--x-16----------------------------------------|
------------------------------------------------------------------------------|
------------------------------------------------------------------------------|

----------------------------14--17--16--17--16----------(16)------------|
-----------16----------------------------------1/2-bend-----------------|
--x-14---x-16---x-14--x-16----------------------------------------------|
--x-14---x-16---x-14--x-16----------------------------------------------|
------------------------------------------------------------------------|
------------------------------------------------------------------------|

-(16)----Vibrato---------Vibrato---------Vibrato----------------(16)--------|
----------------------------------------------------------------------------|
----------------------------------------------------------------------------|
----------------------------------------------------------------------------|
----------------------------------------------------------------------------|
----------------------------------------------------------------------------|

--Bend-Full----------------------------------------------------------------|
-17--17--17--17--17--------------------------------------------------------|
-16--16--16--16--16-----xxxxxxxxxxxxxxxxxxxxxxxxxxxxx----------------------|
---------------------------------------------------------------------------|
---------------------------------------------------------------------------|
---------------------------------------------------------------------------|

---------------------------------------------------------------------------|
---------------------------------------------------------------------------|
-14-14-14----14-14-14----14-14-14----14-14-14----14-14-14------------------|
----------16----------16----------16----------16----------16---------------|
---------------------------------------------------------------------------|
---------------------------------------------------------------------------|

----------------------------------------------------------------------|
----------------------------------------------------------------------|
-14-14-14-------------------------------------------------------------|
--16------------------------------------------------------------------|
----------------------------------------------------------------------|
----------------------------------------------------------------------|

------------------------------------------------------------------------|
------------------------------------------------------------------------|
--6---5---4---4----3--2-------------------------------------------------|
--6---5---4---4----3--2-------------------------------------------------|
--4---3---2---2----2--0-------------------------------------------------|
--4---3---2---2----1----------------------------------------------------|


Текст, аккорды и табулатура для песни "Bombtrack", исполняет "Rage Against The Machine".
Используемые в песне аккорды можно найти в разделе Как брать аккорды. Аккорды для шестиструнной гитары. Другие песни можно найти на нашем сайте, воспользовавшись алфавитным указателем вверху страницы.


 
Ошибка в тексте? Выделите ошибку и нажмите Ctrl+Enter