pm-глушение
p-пул
-слайд
  into
 e----------------------------------------------------------|
 b----------------------------------------------------------|
 g--------------------10p7p0-8p5p0-88-8-8-88-8-8-7-7-77-7-7-| 
 d-10-10-1010-10-1010--------------66-6-6-66-6-6-6-6-66-6-6-|
 a-10-10-1010-10-1010---------------------------------------|
 E-8--8--8-8--8--8-8----------------------------------------|
         pm*     ***               **     **   *     **   * 
  
Кто знает припев и соло присылайте!!

3-й куплет:
--------------------------------|
--------------------------------|
|--5-55-578-------------------------------|
|--5-55-578-6-66-689-3-33-355-8-6-5-3-|
|--3-33-356-6-66-689-3-33-355-8-6-5-3-|
--4-44-467-1-11-134-6-4-3-1-|
     **         **         **


Текст, аккорды и табулатура для песни "End Of All Days", исполняет "Rage".
Используемые в песне аккорды можно найти в разделе Как брать аккорды. Аккорды для шестиструнной гитары. Другие песни можно найти на нашем сайте, воспользовавшись алфавитным указателем вверху страницы.


Слушать онлайн End Of All Days


RageEnd Of All Days на Яндекс.Музыке


 
Ошибка в тексте? Выделите ошибку и нажмите Ctrl+Enter