-------1-----------1-----------1-----------1-----
-----3---3-------3---3-------3---3-------3---3---
---2-------2---2-------2---0-------0---0-------0-
-0-----------------------------------------------
-------------3-----------2-----------------------
-------------------------------------3-----------

-------0-----------0-----------0-----------0-----
-----1---1-------1---1-------1---1-------1---1---
---0-------0---0-------0---2-------2---2-------0-
-------------------------------------------------
-3-----------2-----------0-----------0-----------
-------------------------------------------------

-------0-----------3-----------0-----------0-----
-----1---1-------3---3-------0---0-------1---1---
---2-------2---0-------0---1-------1---2-------2-
-------------------------------------------------
------------------(2)----------------0-----------
-1-----------3-----------4-----------------------

-------3-----------3-----------3-----------3-------
-----1---1-------3---3-------1---1-------1---1-----
---0-------0---0-------0---0-------0---0-------0---
---------------------------------------------------
-3----------------(2)----3-----------3-----------3-
-------------3-------------------------------------

I must get out once in a while
Everything is starting to die
The dust settles, the worms dig
Spiders crawl over the bed

I must get out once in a while
I eat all day and now I´m fat
Yesterday´s meal is hugging the plates
You never wash up after yourself


Текст, аккорды и табулатура для песни "You Never Wash Up After Yourself", исполняет "RadioHead".
Используемые в песне аккорды можно найти в разделе Как брать аккорды. Аккорды для шестиструнной гитары. Другие песни можно найти на нашем сайте, воспользовавшись алфавитным указателем вверху страницы.


Слушать онлайн You Never Wash Up After Yourself


RadioheadYou Never Wash Up After Yourself на Яндекс.Музыке


 
Ошибка в тексте? Выделите ошибку и нажмите Ctrl+Enter