E||-----------------------|----------------------------------|
B||---------------12------|--11--------------10--------------|
G||-------------------13--|------12------12------11------11--|
D||-----------------------|----------14--------------13------|
A||-----------------------|----------------------------------|
E||--0--------------------|----------------------------------|

                                                              
---------------------|-------------------|----------0--------|
--9------------9--9--|--9----------------|----------2--------|
--9~-----------9--8--|--7----------------|----------2--------|
---------------------|-------------------|----------2--------|
---------------------|-------------------|----------0--------|
---------------------|-------------------|-------------------|

                                                                 
--------------0--------|----------2--------|--0-----------------|
------------1----------|-------------------|-----------3--------|
----------2------------|-------------------|--------------------|
--------2--------------|-------------------|--------------------|
------0----------------|-------------------|--------------------|
-----------------------|-------------------|--------------------|

                                                                
-------------------|--------------0--------|----------2--------|
--2----------------|------------1----------|-------------------|
--2----------------|----------2------------|-------------------|
--2----------------|--------2--------------|-------------------|
-------------------|------0----------------|-------------------|
-------------------|-----------------------|-------------------|

                                                                 
--0-----------------|-------------------|--------------0--------|
-----------3--------|--2----------------|------------1----------|
--------------------|--2----------------|----------2------------|
--------------------|--2----------------|--------2--------------|
--------------------|-------------------|------0----------------|
--------------------|-------------------|-----------------------|

                                                                                
-------------------|-------------------|-------------------|-------------------|
----------4--------|----------5--------|----------2--------|----------4--------|
----------5--------|----------6--------|----------2--------|----------4--------|
----------6--------|----------6--------|----------4--------|----------4--------|
----------6--------|----------4--------|----------4--------|----------2--------|
----------4--------|----------4--------|----------2--------|----------2--------|

                                                                                
---------------7-----|--6-----------5-----------|-------------------|----------|
------------------9--|-----8-----8-----7-----7--|--9----------------|----------|
---------------------|--------9-----------8-----|--9~---------------|----------|
---------------------|--------------------------|-------------------|----------|
---------------------|--------------------------|-------------------|----------|
--0------------------|--------------------------|-------------------|----------|

                                                                             
----------|----------|----------|----------|----------|----------|----------|
----------|----------|----------|----------|----------|----------|----------|
----------|----------|----------|----------|----------|----------|----------|
----------|----------|----------|----------|----------|----------|----------|
----------|----------|----------|----------|----------|----------|----------|
----------|----------|----------|----------|----------|----------|----------|

                                                                            
----------|----------|----------|----------|----------|--------------------|
----------|----------|----------|----------|----------|--------------5--4--|
----------|----------|----------|----------|----------|--------------------|
----------|----------|----------|----------|----------|--------------------|
----------|----------|----------|----------|----------|--------------------|
----------|----------|----------|----------|----------|--------------------|

                                                                
-------------------|----------0--------|--------------0--------|
--3----------------|----------2--------|------------1----------|
-------------------|----------2--------|----------2------------|
-------------------|----------2--------|--------2--------------|
-------------------|----------0--------|------0----------------|
-------------------|-------------------|-----------------------|

                                                             
-------------------|--------------------|-------------------|
----------7--------|--5--------3--------|--2----------------|
-------------------|--------------------|--2----------------|
-------------------|--------------------|--2----------------|
-------------------|--------------------|-------------------|
-------------------|--------------------|-------------------|

                                                                 
--------------0--------|-------------------|--------------------|
------------1----------|----------7--------|--5--------3--------|
----------2------------|-------------------|--------------------|
--------2--------------|-------------------|--------------------|
------0----------------|-------------------|--------------------|
-----------------------|-------------------|--------------------|

                                                                
-------------------|--------------0--------|-------------------|
--2----------------|------------1----------|----------4--------|
--2----------------|----------2------------|----------5--------|
--2----------------|--------2--------------|----------6--------|
-------------------|------0----------------|----------6--------|
-------------------|-----------------------|----------4--------|

                                                            
-------------------|-------------------|-------------------|
----------5--------|----------2--------|----------4--------|
----------6--------|----------2--------|----------4--------|
----------6--------|----------4--------|----------4--------|
----------4--------|----------4--------|----------2--------|
----------4--------|----------2--------|----------2--------|

                                                                                
---------------7-----|--6-----------5-----------|-------------------|----------|
------------------9--|-----8-----8-----7-----7--|--9----------------|----------|
---------------------|--------9-----------8-----|--9~---------------|----------|
---------------------|--------------------------|-------------------|----------|
---------------------|--------------------------|-------------------|----------|
--0------------------|--------------------------|-------------------|----------|


Текст, аккорды и табулатура для песни "Nobody Does It Better", исполняет "RadioHead".
Используемые в песне аккорды можно найти в разделе Как брать аккорды. Аккорды для шестиструнной гитары. Другие песни можно найти на нашем сайте, воспользовавшись алфавитным указателем вверху страницы.


 
Ошибка в тексте? Выделите ошибку и нажмите Ctrl+Enter