Artist: Radiohead
Song title: Maquiladora
Tabbed by Guillaume Tixhon
Tunning: EADG


G:------|-----|-----------------------------------------------|
D:-rest-|-----|-----------------------------------------------|
A:------|-----|-----------------------------------------------|
E:------|-12-|-0--0-4-5--4-0--0-0-4-5--4--0--0-4-5--4-0(0)---|


   verse                  x4   fill1                    x2
G:---------------------------|-----------------------------|
D:---------------------------|-----------------------------|
A:---------------------------|-----------------------------|
E:-0--0-4-5--4-0--0-0-4-5--4-|-7--7-7-5--5-5-4--4-4-3--3-3-|


   verse                  x2   chorus                             x3 
G:---------------------------|---------------------------------------|
D:---------------------------|---------------------------------------|
A:---------------------------|-4--4-4-4-4...4------7--7-7-7...7------|
E:-0--0-4-5--4-0--0-0-4-5--4-|----------------7--7--------------7--7-|



G:---------|------------|-----------------------------------------------|-----|
D:---------|------------|-----------------------------------------------|-----|
A:-4-4-4-4-|-3/--5/--10-|-----------------------------------------------|-----|
E:---------|------------|-0--0-4-5--4-0--0-0-4-5--4--0--0-4-5--4-0(0)---|-12-|



G:----------|----------|----------|-----------|---------|------------|
D:-verse-x4-|-fill1-x2-|-verse-x2-|-chorus-x3-|---------|------------|
A:----------|----------|----------|-----------|-4-4-4-4-|-3/--5/--10-|
E:----------|----------|----------|-----------|---------|------------|



G:------------------------------------------------|-------------------------|--------------------------|
D:------------------------------------------------|-------------------------|--------------------------|
A:------------------------------------------------|-------------------------|--------------------------|
E:-0--0-4-5--4-0--0-0-4-5--4--0--0-4-5--4-0(0)/---|-9-9-9-9-----8-8-8-8-----|-9-9-9-9-----8-8-8-8----8-|



G:------------------------------------|------------|-----------------------------------------------|-----|
D:------------------------------------|------------|-----------------------------------------------|-----|
A:------------------------------------|-3/--5/--10-|-----------------------------------------------|-----|
E:-9-9-9-9----9--8-8-8-8----8-9-9-9-9-|------------|-0--0-4-5--4-0--0-0-4-5--4--0--0-4-5--4-0(0)---|-12-|



G:-----------------------------------------------|
D:-----------------------------------------------|
A:-----------------------------------------------|
E:-0--0-4-5--4-0--0-0-4-5--4--0--0-4-5--4-0(0)---|


Текст, аккорды и табулатура для песни "Maquiladora", исполняет "RadioHead".
Используемые в песне аккорды можно найти в разделе Как брать аккорды. Аккорды для шестиструнной гитары. Другие песни можно найти на нашем сайте, воспользовавшись алфавитным указателем вверху страницы.


Слушать онлайн Maquiladora


RadioheadMaquiladora на Яндекс.Музыке


 
Ошибка в тексте? Выделите ошибку и нажмите Ctrl+Enter