В этой песне можно выделить 3 основных части.
Я назвал их: "Музыкальный ряд" он идет на 
протяжении всей песни, и части А и Б

Музыкальный ряд:
---------------- 

E--------------10--8---8------13----12--12--12----------10---
B------------------11--11--10-----------11--------13----10---
G------12--10--10-----------------------12--------12---------
D------12--------------10------------------------------------
A--13------12--------------------10-----10-----------10------
E------------------10------13------------------13------------
                                            ^^^
Здесь также можно взять более высокую ноту на 18-ом ладу (нижняя E струна) 
совмещая с этой нотой на 12-ом ладу. Но если ты будешь играть
партию на одной гитаре, то это получится слишком длинный участок, 
но можно разделить эту часть на две гитары, тогда можно сыграть 
этот кусок на высокой ноте

так: 

E----12--18----------10---
B----11--17----13----10---
G----12--------12---------
D-------------------------
A----10-----------10------
E-----------13------------


часть A:
-------- 

E-----------------------------------------------
B-----------------------------------------------
G-----------------------------------------------
D---3-3---5-5---8--8-----7-7-------7-7---5-5----
A-----------------------------------------------
E---5-5---6-6---10-10----8-8-------8-8---6-6---- 

часть Б:
-------- 

E---3-3---3-3--3-3--3-3-------3-3---3-3-----3-3----5-5-----
B----------------------------------------------------------
G----------------------------------------------------------
D---5-5---3-3-----------------5-5---3-3--------------------
A-----------------------------7-7---------5-5----------3-3-
E---6-6---5-5---------1-1-----6-6---5-5--------1-1--------- 

(нижние струны играть необязательно - или можно сыграть на второй гитаре)


Бас-партия:
---------------

G-------------------------------
D-------------------------------
A--1-3-3-3-3-3---1-3-3-3-3-3-3-- 
E-------------------------------



Структура песни:
---------------- 

Музыкальный ряд x 2
Часть A x 4          (Музыкальный ряд продолжается)
Часть A x 2          (+ Музыкальный ряд + вокал)
Часть B x 2          (без вокала)
Музыкальный ряд x 2  (+ вокал + ударные)
Часть A x 2          (+ Музыкальный ряд + вокал + ударные)
Часть B x 4          (+ вокал + прерывающиеся ударные)
Бас-партия x 2       (+ ударные)
синтезатор           (+ ударные)
Музыкальный ряд x 4  (вступает третий аккорд синтезатотра)
Музыкальный ряд x 2  (+ вокал + вступает 4-ый аккорд синтезатора)
Бас-партия x 4       (+ Музыкальный ряд + ударные + синтезатор)


Когда синтезатор начинает в первый раз, 
первые два аккорда играются так: 

E  A  D  G  B  E       E  A  D  G  B  E
x  8  8  12 10 8       x  8  8  10 8  8     

   Fadd2add4              Fsus2add4 

первый и второй аккорды повторяются. 
3-ий аккорд звучит так: 
E  A  D  G  B  E
x  x  x  17 x 17 

и 4-ый аккорд синтезатора: 

EADGBE
x331xx 

Fsus4


Текст, аккорды и табулатура для песни "Kid A", исполняет "RadioHead".
Используемые в песне аккорды можно найти в разделе Как брать аккорды. Аккорды для шестиструнной гитары. Другие песни можно найти на нашем сайте, воспользовавшись алфавитным указателем вверху страницы.


Слушать онлайн Kid A


RadioheadKid A на Яндекс.Музыке


 
Ошибка в тексте? Выделите ошибку и нажмите Ctrl+Enter