Ra: From One: Only
Tuned to Drop D (D,A,D,G,B,E)
Tabs by Mark Moore ([email protected])



Guitar 1: Intro (Play 2x), Chorus

E-----------------------------------------------------------------
B-----------------------------------------------------------------
G-----------------------------------------------------------------
D------232-------------232---------------232------------232-5-0---
A----------3---0-----------3---5--------------3---0---------------
D-----------------------------------------------------------------

Guitar 2: Intro (Play 2x), Chorus

E-----------------------------------------------------------------
B-----------------------------------------------------------------
G--2-2------------3-3--------------2-2-------------3-3------------
D--2-2------------3-3--------------2-2-------------3-3------------
A--0-0------------1-1--------------0-0-------------1-1------------
D--0-0-----------------------------0-0----------------------------

*******************

Guitar 2: Main (with lots of tremolo & reverb, I think)

E----------------------
B----------------------
G----------------------
D----------------------
A--8-7-----3-2---------
D--8-7-----3-2---------

Guitar 1: High Floaty Part 

E------20---------19---------20--------19----17---
B----18---------18---------18--------18----18-----
G--19---------19---------19--------19----19-------
D-------------------------------------------------
A-------------------------------------------------
D-------------------------------------------------


*******************

Bridge Part

E... ------------------------------------------------
B... ------------------------------------------------
G... ---------------------------------------------7--
D... -232-----------------------------------------7--
A... -----3-0---88888888-77777777--0--2-3--5-0-------
D... -----------88888888-77777777--0--2-3--5-0-------

E-----------------------------------------------------------------------
B-----------------------------------------------------------------------
G-----------------------------------------------------------------------
D-----------------------------------------------------------------------
A--88888888-77777777-(PLAY 4 TIMES)-88888888--10-10-10-10-10-10-10-10---
D--88888888-77777777-(PLAY 4 TIMES)-88888888--10-10-10-10-10-10-10-10---

*******************

Guitar 1: Ending (Play 4x)

E---------------------------------------------------------------- ... ------
B---------------------------------------------------------------- ... ------
G---------------------------------------------------------------- ... ------
A----------3---0-----------3---5--------------3---0-------------- ... -0-0--
D---------------------------------------------------------------- ... -0-0--

Guitar 2: Ending (Play 4x)

E---------------------------------------------------------------- ... ------
B---------------------------------------------------------------- ... ------
G--2-2------------3-3--------------2-2-------------3-3----------- ... ------
D--2-2------------3-3--------------2-2-------------3-3----------- ... ------
A--0-0------------1-1--------------0-0-------------1-1----------- ... -0-0--
D--0-0-----------------------------0-0--------------------------- ... -0-0--


Текст, аккорды и табулатура для песни "Only", исполняет "Ra".
Используемые в песне аккорды можно найти в разделе Как брать аккорды. Аккорды для шестиструнной гитары. Другие песни можно найти на нашем сайте, воспользовавшись алфавитным указателем вверху страницы.


Слушать онлайн Only U


Afu-RaOnly U на Яндекс.Музыке


 
Ошибка в тексте? Выделите ошибку и нажмите Ctrl+Enter