Cum On Feel The Noize by Quiet Riot

(orignally recorded by Slade but, randy rhoads gave soul to the song with this solo)


Solo by Randy Rhoads(R.I.P.)

h = hammer
b = bend


-----------------------------|
-----------------------------|
-----------------------------|
-----------------------------|
----------------0h1h0h2h3h4--|
------0h1h2h3h4--------------|


                                                   
--------------------------------------------------|
--------------------------------------------------|
-----------------------------------12-14h12-------|
-----------------------12h14-12h14----------14h12-|
--------10h12h14-12h14----------------------------|
--10h12-------------------------------------------|


                                                   
--------------------------------------------------|
--------------------------15----15h17h20----------|
-----------12h14-12h14h16----16----------21h19h21-|
--14h12h14----------------------------------------|
--------------------------------------------------|
--------------------------------------------------|


                                                                      
--15b-----15--14--15--14-15h14h12-|--14h-12h14-12h-10--10------------|
----------------------------------|--------------------------12--13--|
----------------------------------|----------------------------------|
----------------------------------|----------------------------------|
----------------------------------|----------------------------------|
----------------------------------|----------------------------------|


                                                               
--------------------------------|-----------------------------|
--15--13--12--13----12--10--12--|----10--8--7--8--10--12--13--|
--------------------------------|-----------------------------|
--------------------------------|-----------------------------|
--------------------------------|-----------------------------|
--------------------------------|-----------------------------|


                                                            
--------------------------------|--------------------------|
--15--13--12--13----12--10--12--|----10--8--10--8------12--|
--------------------------------|--------------------------|
--------------------------------|--------------------------|
--------------------------------|--------------------------|
--------------------------------|--------------------------|


                                                            
--15b---15b---17--15--14--15--|----17--15--14--------------|
------------------------------|----------------15----------|
------------------------------|------------------------16--|
------------------------------|----------------------------|
------------------------------|----------------------------|
------------------------------|----------------------------|


                                                            
--15b---15b---17--15--14--15--|----17--15--14--------------|
------------------------------|----------------15------15--|
------------------------------|----------------------------|
------------------------------|----------------------------|
------------------------------|----------------------------|
------------------------------|----------------------------|


                                                    
--17b---17b---------19--|--19----------------------|
------------------------|------20--22b---------20--|
------------------------|--------------------------|
------------------------|--------------------------|
------------------------|--------------------------|
------------------------|--------------------------|


                                                   
--19-15-15-15-17-15-15-15-19-15-15-15-17-15-14-14-|
--------------------------------------------------|
--------------------------------------------------|
--------------------------------------------------|
--------------------------------------------------|
--------------------------------------------------|


                                       
--17-14-15-14-12-15-12--12-10-12------|
--------------------------------------|
--------------------------------------|
--------------------------------------|
--------------------------------------|
--------------------------------------|


                                                   
--------------------------------------------------|
--------------------------------------------------|
-----------------------------------12-14h12-------|
-----------------------12h14-12h14----------14h12-|
--------10h12h14-12h14----------------------------|
--15h12-------------------------------------------|


                                                   
--------------------------------------15----------|
--------------------------15----15h17----17h15h17-|
-----------12h14h12h14h16----16-------------------|
--14h12h14----------------------------------------|
--------------------------------------------------|
--------------------------------------------------|


                                                                    
--15b-----15h-14-15h14-12h14-15h14h12-|--12h14-17h-20--20b---------|
--------------------------------------|----------------------------|
--------------------------------------|----------------------------|
--------------------------------------|----------------------------|
--------------------------------------|----------------------------|
--------------------------------------|----------------------------|

Great Solo, by greatest Randy Rhoads (R.I.P.)

OK you got it any question, tab request, life threading message go to:
[email protected]


Текст, аккорды и табулатура для песни "Cum On Feel The Noize", исполняет "Quiet Riot".
Используемые в песне аккорды можно найти в разделе Как брать аккорды. Аккорды для шестиструнной гитары. Другие песни можно найти на нашем сайте, воспользовавшись алфавитным указателем вверху страницы.


 
Ошибка в тексте? Выделите ошибку и нажмите Ctrl+Enter