#----------------------------------PLEASE NOTE--------------------------------#
#This file is the author's own work and represents their interpretation of the#
#song. You may only use this file for private study, scholarship, or research.#
#-----------------------------------------------------------------------------#
#-- File created with Instab - http://www.pconline.com/~smcarey/instab.html --#
#-----------------------------------------------------------------------------#

Author/Artist: Queensryche
Title: My Empty Room
Album: Operation: Mindcrime
Transcribed by: Raven
Email: [email protected]

[email protected]-------------|
----0-------------------12-------------------8------------------5-----------*-|
-------0--------------------0-------------------0------------------0----------|
-------------5--------------------14------------------10-----------------7----|
----------0--------------------0-------------------0------------------0-----*-|
------------------------------------------------------------------------------|
 Empty room today . . .

------------------------------------------------------------------------------|
------------------------------------------------------------------------------|
------------------------------------------------------------------------------|
-5-------------------------7-------------------------5------------------------|
-5-------------------------7-------------------------5------------------------|
-3-----3---5--b7--r5---3---5-----7---7b8----r7------3-----3---5--b7--r5---3--|
  now who will come?????????  to wash away  my       sins . . ..

------------------------------------------------------------------------------|
------------x-----------------------------------------------------------------|
------------x-----------------------------------------------------------------|
--7---------x-----------------------------------------------------------------|
--7---------x-----------------------------------------------------------------|
--5---------x-----------------------------------------------------------------|


h  - hammer on
p  - pull off
* - trill
b  - bend (use tremolo bar for downbend)
r  - release bend
/  - slide up
  - slide down
v  - vibrato
t  - tap (with strumming hand)
x  - fret-hand muting
^ -  natural harmonics
ph- artificial (pinch) harmonics
PM palm mute
                    -----------/-----------------------------|
Lines going diagonally up and down   ----------/-------------|
These mean whammy bar                     --------/----------|
          -                                    ------/-------|
 - bar down
/- bar up


Текст, аккорды и табулатура для песни "My Empty Room", исполняет "Queensryche".
Используемые в песне аккорды можно найти в разделе Как брать аккорды. Аккорды для шестиструнной гитары. Другие песни можно найти на нашем сайте, воспользовавшись алфавитным указателем вверху страницы.


Слушать онлайн My Empty Room


QueensrÿcheMy Empty Room на Яндекс.Музыке


 
Ошибка в тексте? Выделите ошибку и нажмите Ctrl+Enter