Song: The Lost Art of Keeping a Secret
Artist: Queens of the Stone Age
Album: Rated R or (with small alterations) off songs for the dead (live)
One guitar plays an octave above the other

All guitars tuned down two whole steps to C
Low to High=C,F,Bb,Eb,G,C 
u should be able to work out how many times chords r hit.

Intro and Verse
E5   B5   Bb5  A5
-----------------------------------------------
-----------------------------------------------
-9---------------------------------------------
-9----9----8----7------7b--7-5-----------------
-7----9----8----7---0-----------7--------------
-0----7----6----5------------------------------ 
Bar for each chord. then fill/fiddle/thingy. chorus

Gtr.1
E5   B5   Bb5  G5      A5  B5
------------------------------------------------
------------------------------------------------
-9----------------------------------------------
-9----9----8----5-5-5-5-7-X-9-------------------
-7----9----8----5-5-5-5-7-X-9-------------------
-0----7----6----3-3-3-3-5-X-7------------------- 

Gtr.2
------------------------------------------------
------------------------------------------------
-9----16---15---12-12-12-12-14-X-16-------------
-9----16---15---12-12-12-12-14-X-16-------------
-7----14---13---10-10-10-10-12-X-14-------------
-0---------------------------------------------- 

both played at exactly the same time between Bridge

Gtr.1
Bb5  C5    ?    C5(2nd time only)
------------------------------------------------
------------------------------------------------
-----------16---------0-14b--15b----------------
-8----10----X----10-----------------------------
-8----10---14----10-----------------------------
-6----8----------8------------------------------ 

Gtr.2            (2nd time only)
------------------------------------------------
------------------------------------------------
-15---17---16----17-----------------------------
-15---17----X----17-----------------------------
-13---15---14----15-----------------------------
------------------------------------------------ 
Octave for about 2 bars 

Solo
Other guitar plays intro/verse chords throughout

-12b------15b---13b-----------------------------
-15b--15--18b---16b-----------------------------
---------------------11b--12b-------------------
---------------------14b--15b-------------------
------------------------------------------------
------------------------------------------------
do this twice. start to drag bends out more.

-12b--------15b--------18b---18b---17b----------
-15b--------18b--------21b---21b---20b----------
------------------------------------------------
------------------------------------------------
------------------------------------------------
------------------------------------------------
Drag first 2 bends hard. Outro by both guitars.

------------------------------------------------
--------------------------------12--------------
-9-9---------9-9-----------9-9--12--------------
-9-9--5-7-9--9-9-----5-7-9-9-9--12--5-7-9-------
-7-7--5-7-9--7-7-----5-7-9-7-7------5-7-9-------
-0-0--3-5-7--0-0-0-0-3-5-7-0-0------3-5-7------- 

------12b---------------------------------------
------15b---------------------------------------
-9------------------9---------------------------
-9-----------5-7-9--9---------------------------
-7-----------5-7-9--7---------------------------
-0---------0-3-5-7--0---------------------------


Текст, аккорды и табулатура для песни "The Lost Art Of Keeping A Secret", исполняет "Queens Of The Stone Age".
Используемые в песне аккорды можно найти в разделе Как брать аккорды. Аккорды для шестиструнной гитары. Другие песни можно найти на нашем сайте, воспользовавшись алфавитным указателем вверху страницы.


 
Ошибка в тексте? Выделите ошибку и нажмите Ctrl+Enter