Queens of the Stone age - The lost art of keeping a secret.

This is an easy song, which sounds good if you can play the fill fast enoghth.

Main Rift
e|---------------------------------------------------------|
B|---------------------------------------------------------|
G|---------------------------------------------------------|
D|--55555555-----------------------------------------------|
A|--33333333555555554444444433333333-----------------------|
E|----------333333332222222211111111-----------------------|

Fill
e|---------------------------------------------------------|
B|---------------------------------------------------------|
G|---------------------------------------------------------|
D|---------------------------------------------------------|
A|----3-5b-5-3-0-------------------------------------------|
E|---------------------------------------------------------|

Variation rift
e|---------------------------------------------------------|
B|---------------------------------------------------------|
G|---------------------------------------------------------|
D|---55555555----------------------------------------------|
A|---33333333777777774444444433333333----------------------|
E|-----------555555552222222211111111----------------------|

Solo
e|--------------5b-----8b--5b----------5b----8b--6b--------|
B|--3----5------------------3----5-------------------------|
G|---------------------------------------------------------|
D|---------------------------------------------------------|
A|---------------------------------------------------------|
E|---------------------------------------------------------|

e|-------------5b---5b----8b---8b--10/11-10/11-10/11-10/11-10/11-10/11--|
B|--3----5---------------------------------------------------------------|
G|-----------------------------------------------------------------------|
D|-----------------------------------------------------------------------|
A|-----------------------------------------------------------------------|
E|-----------------------------------------------------------------------|

Hope this is accurate. I did this quite quick.

| /  slide up
|   slide down
| b  bend up
| h  hammer-on
| p  pull-off
| ~  vibrato
| +  harmonic
| x  Mute note

===============================================================================


Текст, аккорды и табулатура для песни "The Lost Art Of Keeping A Secret", исполняет "Queens Of The Stone Age".
Используемые в песне аккорды можно найти в разделе Как брать аккорды. Аккорды для шестиструнной гитары. Другие песни можно найти на нашем сайте, воспользовавшись алфавитным указателем вверху страницы.


 
Ошибка в тексте? Выделите ошибку и нажмите Ctrl+Enter