Tuning : standard

Here's right!!!!     tabbed by skatekid in a small town


e|------------------------------------------------------------------------
B|------------------------------------------------------------------------
G|------------------------------------------------------------------------
D|-10-10-10-10-10-10-10-10-10-10-10-10-10-10-10-10-10-10-10-10-10-10-10-10
A|-10-10-10-10-10-10-10-10-10-10-10-10-10-10-10-10-10-10-10-10-10-10-10-10
E|--8--8--8--8--8--8--8--8--8--8--8--8--8--8--8--8--8--8--8--8--8--8--8--8

Now: repeat the following part a couple times (starts by about 0:31)


e|------------------------------------
B|------------------------------------
G|------------------------------------
D|-10-10-10-13-13-13-10-10-10-12-12-12
A|-10-10-10-13-13-13-10-10-10-12-12-12
E|--8--8--8-11-11-11--8--8--8-10-10-10


verse:

e|------------------------------------------
B|------------------------------------------
G|------------------------------------------     This as far as you need ,
D|-10-10-10-10-10-10-10-10-10-10-10-10-10-10      then this:
A|-10-10-10-10-10-10-10-10-10-10-10-10-10-10
E|--8--8--8--8--8--8--8--8--8--8--8--8--8--8


e|------------------------------------
B|------------------------------------
G|-------------6-6--------------------
D|-3-3--5-5-5--6-6--6-6--3-3-3-3-3-3-3   then repeat the previous and so on.
A|-3-3--5-5-5--4-4--6-6--3-3-3-3-3-3-3
E|-1-1--3-3-3-------4-4--1-1-1-1-1-1-1


Chorus:

e|---------------------------
B|---------------------------
G|--8-8-8-8-8-8-8-8---------5
D|--8-8-8-8-8-8-8-8--8-8-8--5
A|--6-6-6-6-6-6-6-6--8-8-8--3  then:begin from the beginning again!
E|-------------------6-6-6---


Текст, аккорды и табулатура для песни "Regular John", исполняет "Queens Of The Stone Age".
Используемые в песне аккорды можно найти в разделе Как брать аккорды. Аккорды для шестиструнной гитары. Другие песни можно найти на нашем сайте, воспользовавшись алфавитным указателем вверху страницы.


 
Ошибка в тексте? Выделите ошибку и нажмите Ctrl+Enter