Tabbed by Matt 
Nb. Quavers are swung just listen to it, and dont forget drop tunning
-------------------------------------------------------------------------------
                       No One Knows - Queens Of the Stone Age
-------------------------------------------------------------------------------

Intro
Eb|----------------|----------------|
Bb|----------------|----------------|
F |7-------7-------|7-------7-------|
C |----------------|------------10-|

                                  3x
Eb|----------------|----------------|----------------|----------------|
Bb|*---------------|---------------*|----------------|--5---------5---|
F |*---------------|---------------*|----------------|5-------5-------|
C |0---12--0---12--|0---12--0---10-|0---12--0---12--|----7-----------|

Verse 1                           3x
Eb|----------------|----------------|----------------|----------------|
Bb|*---------------|---------------*|----------------|------------5---|
F |*---------------|---------------*|----------------|--------5-------|
C |0---12--0---12--|0---12--0---5-3-|0---12--0---12--|5---7-----------|

Eb|----------------|----------------|----------------|----------------|
Bb|----------------|----------------|----------------|----------------|
F |----------------|----------------|6---6---6---6---|6---5---6---6---|
C |7---7---7---7---|7---7---7---7---|----------------|----------------|

Riff
Eb|----------------|----------------|----------------|----------------|
Bb|----------------|----------------|----------------|------------5---|
F |----------------|----------------|----------------|--------5-------|
C |0---12--0---12--|0---12--0---10-|0---12--0---12--|5---7-----------|

Verse 2: Play Verse 1
then
Eb|----------------|----------------|----------------|----------------|
Bb|----------------|----------------|----------------|9---7-----------|
F |----------------|----------------|----------------|--------9---9---|
C |0---12--0---12--|0---12--0---12--|0---12--0---12--|----------------|

Eb|----------------|----------------|----------------|----------------|
Bb|----------------|----------------|----------------|----------------|
F |----------------|----------------|6---6---6---6---|6---5---6---6---|
C |7---7---7---7---|7---7---7---7---|----------------|----------------|

Eb|----------------|----------------|----------------|----------------|
Bb|----------------|----------------|----------------|----------------|
F |----------------|----------------|----------------|----------------|
C |0---12--0---12--|0---12--0---12--|0---12--0---12--|0---12--0---10-|

Chorus
Eb|----------------|----------------|----------------|----------------|
Bb|----------------|----------------|----------------|----------------|
F |7---9---10--9---|12--10--14--12--|----------------|----------------|x2
C |----------------|----------------|7-0-7-0-7-0-7-0-|7-0-7-0-7-0-7-0-|

Eb|----------------|----------------|----------------|----------------|
Bb|----------------|----------------|----------------|----------------|
F |10--9---7---5---|7---9---10--9---|----------------|----------------|
C |----------------|----------------|7-0-7-0-7-0-7-0-|7-0-7-0-7-0-7-0-|

Eb|9-9-9-9-11111111|1212121214141414|----------------|----------------|
Bb|----------------|----------------|----------------|----------------|
F |----------------|----------------|----------------|----------------|
C |----------------|----------------|7-0-7-0-7-0-7-0-|7-0-7-0-7-0-7-0-|

Play Riff
Verse 3: as Verse 1

Riff 2
Eb|----------------|----------------|----------------|----------------|
Bb|----------------|----------------|----------------|------------5---|
F |----------------|----------------|----------------|--------5-------|
C |0---12--0---12--|0---12--0---12--|0---12--0---12--|5---7-----------|

Verse 4: as Verse 1
then
Eb|----------------|----------------|----------------|----------------|
Bb|----------------|----------------|----------------|9---7-----------|
F |----------------|----------------|----------------|--------9---9---|
C |0---12--0---12--|0---12--0---10-|0---12--0---12--|----------------|

Eb|----------------|----------------|----------------|----------------|
Bb|----------------|----------------|----------------|----------------|
F |----------------|----------------|6---6---6---6---|6---5---6---6---|
C |7---7---7---7---|7---7---7---7---|----------------|----------------|

Eb|----------------|----------------|----------------|----------------|
Bb|----------------|----------------|----------------|----------------|
F |----------------|----------------|----------------|----------------|
C |0---12--0---12--|0---12--0---12--|0---12--0---12--|0---12--0---10-|

Chorus 2: Play Chorus

Bridge
Eb|----------------|----------------|----------------|----------------|
Bb|----------------|----------------|----------------|/--3-----------|
F |7-0-7-0-7-0-7-0-|7-0-7-0-7-0-7-0-|7-0-7-0-7-0-7-0-|------6--/--3--|x2
C |----------------|----------------|----------------|7--8-----7--5--7|

Eb|----------------|----------------|----------------|
Bb|/--3-----------|/--3-----------|/--3-----------|
F |------6--/--3--|------6--/--3--|------6--/--3--|
C |7--8-----7--5--7|7--8-----7--5--7|7--8-----7--5--7|

Solo 
Eb|--------------------------------|/--3---------------------------|
Bb|14--14--14--14--14--14--14--14--|12-14-1414--14--14--14--14--14--|
F |--------------------------------|--------------------------------|
C |--------------------------------|--------------------------------|
                       
Eb|/--3-----------12-14-1414--14--|/--3---------------------------|
Bb|12-14-1414--14----3--/---------|12-14-14--------/--3-----------|
F |--------------------------------|--------12--12--12-14-1414--14--|
C |--------------------------------|--------------------------------|

Eb|/--3---------------------------|/--3---------------------------|
Bb|12-14-1414--14--14--14--14--14--|12-14-1414--14--14--14--14--14--|
F |--------------------------------|--------------------------------|
C |--------------------------------|--------------------------------|

Eb|/--3-----------12-14-1414--14--|--------12-14-14----------------|
Bb|12-14-1414--14----3--/---------|12-14-14--3--/-12-14-14--------|
F |--------------------------------|--3--/-----------3--/-12-14-14|
C |--------------------------------|--------------------------3--/-|

Eb|/--3---------------------------|/--3---------------------------|
Bb|12-14-1414--14--14--14--14--14--|12-14-1414--14--14--14--14--14--|
F |--------------------------------|--------------------------------|
C |--------------------------------|--------------------------------|

Eb|/--3-----------12-14-1414--14--|--------14-16-16----------------|
Bb|12-14-1414--14----3--/---------|12-14-14--3--/-12-14-14--------|
F |--------------------------------|--3--/-----------3--/-12-14-14|
C |--------------------------------|--------------------------3--/-|

Eb|/--3---------------------------|/--3---------------------------|
Bb|12-14-1414--14--14--14--14--14--|12-14-1414--14--14--14--14--14--|
F |--------------------------------|--------------------------------|
C |--------------------------------|--------------------------------|

Eb|--------12-14-14----------------|--------12-14-14----------------|
Bb|12-14-14--3--/-12-14-14--------|12-14-14--3--/-12-14-14--------|
F |--3--/-----------3--/-12-14-14|--3--/-----------3--/-12-14-14|
C |--------------------------3--/-|--------------------------3--/-|

Verse 5                           3x
Eb|----------------|----------------|----------------|----------------|
Bb|*---------------|---------------*|----------------|----------------|
F |*---------------|---------------*|----------------|----------------|
C |0---12--0---12--|0---12--0---12--|0---12--0---12--|0---12--0---10-|

Eb|----------------|----------------|----------------|----------------|
Bb|----------------|----------------|----------------|------------5---|
F |----------------|----------------|----------------|--------5-------|
C |0---12--0---12--|0---12--0---5-3-|0---12--0---12--|5---7-----------|

Eb|----------------|----------------|----------------|7---9-----------|
Bb|----------------|----9---7-------|----------------|--------9---7---|
F |----------------|------------9---|6---6---6---6---|----------------|
C |7---7---7---7---|7---------------|----------------|----------------|

Eb|----------------|----------------|----------------|----------------|
Bb|----------------|----------------|----------------|9---7-----------|
F |----------------|----------------|----------------|--------9---7---|
C |0---12--0---12--|0---12--0---10-|0---12--0---12--|----------------|

Eb|----------------|----------------|----------------|----------------|
Bb|----------------|----------------|----------------|----------------|
F |----------------|----------------|6---6---6---6---|6---5---6---6---|
C |7---7---7---7---|7---7---7---7---|----------------|----------------|

Eb|----------------|----------------|----------------|----------------|
Bb|----------------|----------------|----------------|----------------|
F |7-------7-------|7-------7-------|7---stop--------|----------------|
C |----------------|----------------|----------------|----------------|

to request a tab email me at [email protected]
[email protected]--------------


Текст, аккорды и табулатура для песни "No One Knows", исполняет "Queens Of The Stone Age".
Используемые в песне аккорды можно найти в разделе Как брать аккорды. Аккорды для шестиструнной гитары. Другие песни можно найти на нашем сайте, воспользовавшись алфавитным указателем вверху страницы.


 
Ошибка в тексте? Выделите ошибку и нажмите Ctrl+Enter