transcibed by:thomas yi
standard tuning

start fragment
e[--------][------------------------][--][---------------------]
b[5-5-5-5-][----------------6-6-5---][12][-------5-5-5-6-6-6---]
g[6-6-6-6-][----------------x-x-x-6-][11][-------6-6-6-x-x-x-6-]
d[6-6-6-6-][main-riff-------6-6-6-6-][--][verse--6-6-6-6-6-6-6-]
a[4-4-4-4-][----------------4-4-4-4-][--][-------4-4-4-4-4-4-4-]
e[--------][---------121-0---------][--][------0-0-0-0--------]

[--------------------------------][----------][--][------]
[--------------------------------][----------][0-][------]
[5-5-5-5-5-5-5-5/8-8-8-8-8-8-8-8-][----------][4b][------]
[6-6-6-6-6-6-6-6/9-9-9-9-9-9-9-9-][main-riff-][--][verse-]
[6-6-6-6-6-6-6-6/9-9-9-9-9-9-9-9-][----------][--][------]
[4-4-4-4-4-4-4-4/7-7-7-7-7-7-7-7-][----------][--][------]

[--------------------------------][----------][------------------][----------]
[--7---7---7---------------------][----------][------------------][----------]
[5-5-5-5-5-5-5-5-8-8-8-8-8-8-8-8-][----------][------------------][----------]
[6-6-6-6-6-6-6-6/9-9-9-9-9-9-9-9-][main-riff-][riff-[1]----------][main-riff-]
[6---6---6---6-6/9-9-9-9-9-9-9-9-][----------][------------------][----------]
[4-4-4-4-4-4-4-4/7-7-7-7-7-7-7-7-][----------][--------3h4/8-81-][----------]

[--------------------------------][----------][-----------------------------]
[--7---7---7---------------------][----------][--------10-10-10-10h11/15-7v-]
[5-5-5-5-5-5-5-5/8-8-8-8-8-8-8-8-][----------][--------]--------------------]
[6-6-6-6-6-6-6-6/9-9-9-9-9-9-9-9-][main-riff-][riff-[2]---------------------]
[6---6---6---6-6/9-9-9-9-9-9-9-9-][----------][-----------------------------]
[4-4-4-4-4-4-4-4/7-7-7-7-7-7-7-7-][----------][-----------------------------]

[----------]
[----------]
[----------]
[main-riff-]
[----------]
[----------]


[----------------------------------------]
[----------------------------------------]
[-------5-5-5-5-5-5-5-5------------------]
[chorus-6-6-6-6-6-6-6-6------------------]
[-------6-6-6-6-6-6-6-6-7-6-4-6-7-9-11-9-]
[-------4-4-4-4-4-4-4-4------------------]

on the chorus the second time around play this after it
[----------------------------]
[----------------------------]
[5-5-5-5-5-5-5-5-------------]
[6-6-6-6-6-6-6-6-6-7-9-6-4-6-]
[6-6-6-6-6-6-6-6-6-7-9-6-4-6-]
[4-4-4-4-4-4-4-4-4-5-7-4-2-4-]

[------------------------------------------------------]
[------------------------------------------------------]
[------------------------------------------------------]
[bass-solo[1]------------------------------------------]
[------------4-4-4-4-4-4-4-2-4-4-4-4-9-9-9-4-4-4-------]
[------------------------------------------------3-3-3-]

guitar solo [i have no clue]

[-----------------------------][------][--------------------------------]
[-----------------------------][------][--7---7---7---------------------]
[-----------------------------][------][5-5-5-5-5-5-5-5/8-8-8-8-8-8-8-8-]
[bass-solo[2]-----------------][verse-][6-6-6-6-6-6-6-6/9-9-9-9-9-9-9-9-]
[-------------2-2-2-2-2-2-2-2-][------][6---6---6---6-6/9-9-9-9-9-9-9-9-]
[------------0-0-0-0-0-0-0-0--][------][4-4-4-4-4-4-4-4/7-7-7-7-7-7-7-7-]
         
            end fragment 
[----------] [--------]      sorry i didnt put the order of the song but
[----------] [--------]      its pretty easy to get the order and the number
[----------] [5-5-5-5-]      of times you play something by listening to the
[main-riff-] [6-6-6-6-]      song a few times, but is all there except the 
[----------] [6-6-6-6-]      guitar solo.
[----------] [4-4-4-4-]


Текст, аккорды и табулатура для песни "No One Knows", исполняет "Queens Of The Stone Age".
Используемые в песне аккорды можно найти в разделе Как брать аккорды. Аккорды для шестиструнной гитары. Другие песни можно найти на нашем сайте, воспользовавшись алфавитным указателем вверху страницы.


 
Ошибка в тексте? Выделите ошибку и нажмите Ctrl+Enter