QOTSA - GOD IS IN THE RADIO - BASS TAB

This is the standard tuned version

Intro...
G|--------------------------------------|
D|--------------------------------------|
A|-0-0-0-0-0-0-0-0-0-0-0-0-0-0-0-13-12-|
E|--------------------------------------|

Verse...
G|----------------------|
D|----------------------|
A|-0-0-0-0-0-0-0-13-12-|
E|----------------------|

Chorus...

G|----------------------------|
D|----------------------------|
A|-0------0-------------------|
E|----3-3-----1-1-1-1-1-1-1-1-|
Bare in mind there are some variations and a fade in the middle.

    

Thankyou...
Check out my Alien Ant Farm tab
NOW!!!


Текст, аккорды и табулатура для песни "God Is In The Radio", исполняет "Queens Of The Stone Age".
Используемые в песне аккорды можно найти в разделе Как брать аккорды. Аккорды для шестиструнной гитары. Другие песни можно найти на нашем сайте, воспользовавшись алфавитным указателем вверху страницы.


 
Ошибка в тексте? Выделите ошибку и нажмите Ctrl+Enter