Artist: Queens of the Stone Age
Song: God is in the Radio
Album: Songs for the Deaf (2002)
Tuning: C-F-Bb-Eb
Notes:
~ - Let Ring
h - Hammer-On
p - Pull-Off
 - Slide Down
/ - Slide Up


Intro: There's some kind of light fuzz effect 
Eb|-------------------------|
Bb|-------------------------|
F |-------------------------|
C |--9---9---9---9---9---9--| (x5)



Verse: (x12)
Eb|-------------------------------|
Bb|-12-11------------------------|
F |-------------------------------|
C |--------9---9---9---9---9---9--| 



Chorus: (x4)
Eb|-----------------|
Bb|-----------------|
F |-----------------|
C |--9-----0-7-0-9--|

Eb|----------------------------|
Bb|----------------------------|
F |----------------------------|
C |--5-5-5-5-5-5-5-5-5-5-5-5-5-|



Verse: (x10)
Eb|-------------------------------|
Bb|-12-11------------------------|
F |-------------------------------|
C |--------9---9---9---9---9---9--|



Chorus: (x4)
Eb|-----------------|
Bb|-----------------|
F |-----------------|
C |--9-----0-7-0-9--|

Eb|----------------------------|
Bb|----------------------------|
F |----------------------------|
C |--5-5-5-5-5-5-5-5-5-5-5-5-5-|

Guitar Solo Lead-In:
Eb|--------|
Bb|-12-11-|
F |--------|
C |--------|



Guitar Solo: (x4)
Eb|-------------------------------|
Bb|--9-7--7-7-7-7-7-7-7-7-7-7-7-7-|
F |-------------------------------|
C |-------------------------------|

Eb|--------------------------------------------------------|
Bb|--------------------------------------------------------|
F |--7h9-9--7h9-9--7h9-9--7h9-9--7-------------------------|
C |--------------------------------9-9-9-9-9-9-9-9-9-9-9-9-|

Last time:
Eb|-------------------------------|
Bb|--9-7--7-7-7-7-7-7-7-7-7-7-7-7-|
F |-------------------------------|
C |-------------------------------|

Eb|---------------------------------------------------------|
Bb|---------------------------------------------------------|
F |--7h9-9--7h9-9--7h9-9--7h9-9--7h9-9--7h9-9--7h9-9--7h9-9-|
C |---------------------------------------------------------|



Verse: 3:28 - 4:51 
       -Slowly fade out completely at 4:00 then slowly 
        fade back in at 4:18
Eb|-------------------------------|
Bb|------------------------12-11-|
F |-------------------------------|
C |--9---9---9---9---9---9--------|



Outro Guitar Solo:
Eb|---------------------------|
Bb|---------------------------|
F |---------------------------|
C |-10-9---9---9---9---9---9--|

Eb|---------------------------15h17-17---------|
Bb|-------------------15h17-17--------15h17-17-|
F |--------------------------------------------|
C |-10-9---9---9---9---------------------------|

Eb|--------------------------------------------|
Bb|-12-11-------------------------------------|
F |-------------------11p9---9-9--11p9---9-9---|
C |--------9---9---9-------9-----9-----9-----9-|

Eb|-------------------------------------------------------|
Bb|-------------------------------------------------------|
F |-------------------16-16-16-16-14-14-14-14-16-16-16-16-|
C |-10-9---9---9---9--------------------------------------|

Eb|---------------------------|
Bb|---------------------------|
F |---------------------------|
C |-10-9---9---9---9---9---9--|

Eb|------------------------------------|
Bb|----------------------9h11-11-11-11-|
F |------------------------------------|
C |-10-9---9---9---9---9---------------|

Eb|-------------------------------|
Bb|-------------------------------|
F |---------------------11p9-9-11-|
C |--7-9---9---9---9---9----------|

Eb|---------------------------|
Bb|---------------------------|
F |---------------------------|
C |-10-9---9---9---9---9---9--|

Eb|-----------------|
Bb|----------12-11~-|
F |--9h10h11--------|
C |-----------------|


Текст, аккорды и табулатура для песни "God Is In The Radio", исполняет "Queens Of The Stone Age".
Используемые в песне аккорды можно найти в разделе Как брать аккорды. Аккорды для шестиструнной гитары. Другие песни можно найти на нашем сайте, воспользовавшись алфавитным указателем вверху страницы.


 
Ошибка в тексте? Выделите ошибку и нажмите Ctrl+Enter