Standard Tuning

I think the bass player has it tuned another way but 
I'm not sure what it is so this'll do.
Play this tab as you see it, it's all in sequence.
Please rate and leave comments.

/ = slide up
 = slide down

G|--------------------------------------------------|
D|--------------------------------------------------|
A|-----------------33333333-------------------------|
E|-0000000000000000--------555555550000000000000000-|

G|----------------------------------|
D|----------------------------------|
A|-33333333--------5577777777777777-|
E|---------55555555-----------------|

G|----------------------------------|
D|----------------------------------|
A|-33333333-------------------------|
E|---------555555550000000000000000-| x2

G|-----------------------------------|
D|-----------------------------------|
A|-33333333--------5/777777777777777-|
E|---------55555555------------------|

G|----------------------------------|
D|----------------------------------|
A|-33333333--------56777777--577777-|
E|---------55555555--------57-------|

G|----------------------------------|
D|----------------------------------|
A|-33333333-------------------------|
E|---------555555550000000000000000-| x2

G|----------------------------------|
D|----------------------------------|
A|-33--33--55--55-------------------|
E|---33------00----0000000000000000-| x4

G|----------------------------------|
D|----------------------------------|
A|-33333333-------------------------|
E|---------555555550000000000000000-|

G|----------------------------------|
D|----------------------------------|
A|-33333333--------56777777--577777-|
E|---------55555555--------57-------|

G|------------------------------------|
D|-----------------------7-575--------|
A|-33333333--------567777-7---757--57-|
E|---------55555555--------------57---|

G|----------------------------------|
D|----------------------------------|
A|-33333333-------------------------|
E|---------555555550000000000000000-|

G|-----------------------------------|
D|-----------------------------------|
A|-33333333--------5/777777777777777-|
E|---------55555555------------------|

G|----------------------------------|
D|----------------------------------|
A|-33333333-------------------------|
E|---------555555550000000000000000-|

G|----------------------------------|
D|----------------------------------|
A|-33333333----------------77777777-|
E|---------5555555500000000---------|

G|----------------------------------|
D|----------------------------------|
A|-33333333-------------------------|
E|---------555555550000000000000000-|

G|----------------------------------|
D|----------------------------------|
A|-33--33--55--55-------------------|
E|---33------00----0000000000000000-| x4

G|----------------------------------|
D|----------------------------------|
A|-33333333555555557777777777777777-|
E|----------------------------------| x5

G|---------------------------------------|
D|---------------------------------------|
A|-3333333355555555----------------------|
E|-----------------00000000/1212121212-|


Текст, аккорды и табулатура для песни "Go With The Flow", исполняет "Queens Of The Stone Age".
Используемые в песне аккорды можно найти в разделе Как брать аккорды. Аккорды для шестиструнной гитары. Другие песни можно найти на нашем сайте, воспользовавшись алфавитным указателем вверху страницы.


 
Ошибка в тексте? Выделите ошибку и нажмите Ctrl+Enter