Intro
G-------------------------------------------------
D-------------------------------------------------
A-----------------33333---00000-------------------
E-0000000000000000----------------0000000000000000

G---------------------------------
D---------------------------------
A-33333---00000--/7777777777777777
E---------------------------------

Verse
G---------------------------------
D---------------------------------
A-33333---00000-------------------
E-----------------0000000000000000 x3

G---------------------------------
D---------------------------------
A-33333---00000--/777--5/7-7777777
E--------------------57-----------

G---------------------------------
D---------------------------------
A-33333---00000-------------------
E-----------------0000000000000000 x2

Chorus
G---------------------------------
D---------------------------------
A-33--3---55--5----777777777777777
E---00------00--------------------
sometimes
G---------------------------------
D---------------------------------
A-33--3---55-355---777777777777777
E---00------0---00----------------

Verse 2
G---------------------------------
D---------------------------------
A-33333---00000-------------------
E-----------------0000000000000000

G---------------------------------
D---------------------------------
A-33333---00000--/77777777--57-777
E-------------------------57------

G---------------------------------
D---------------------5-575-------
A-33333---00000---7777-7---757--57
E-----------------------------05--

G---------------------------------
D---------------------------------
A-33333---00000--/7777777777777777
E---------------------------------

G---------------------------------
D---------------------------------
A-33333---00000-------------------
E-----------------0000000000000000 x2

G---------------------------------
D---------------------------------
A-33333---00000----------577777777
E-----------------0000007---------

G---------------------------------
D---------------------------------
A-33333---00000-------------------
E-----------------0000000000000000

Outro
G---------------------------------
D---------------------------------
A-33333333555555557777777777777777
E---------------------------------

G----
D----
A-7-
E-7-


Текст, аккорды и табулатура для песни "Go With The Flow", исполняет "Queens Of The Stone Age".
Используемые в песне аккорды можно найти в разделе Как брать аккорды. Аккорды для шестиструнной гитары. Другие песни можно найти на нашем сайте, воспользовавшись алфавитным указателем вверху страницы.


 
Ошибка в тексте? Выделите ошибку и нажмите Ctrl+Enter