Song: Go With The Flow
Band: Queens Of The Stone Age
tabbed by:funeralforafrie

Very Very Very easy song...shouldnt really need to explain!

e|-----------------------------------------------------------|
B|-----------------------------------------------------------|
G|-----------------------------------------------------------|
D|--2-2-2-2-2-2-2-2-2-2-2-2-2-2-2-2--------------------------|
A|--2-2-2-2-2-2-2-2-2-2-2-2-2-2-2-2--------------------------|
E|--0-0-0-0-0-0-0-0-0-0-0-0-0-0-0-0--------------------------|


Intro (Guitar 1)
e|-----12--/15-12---12--12--12--1210-----------------------|
B|--------------------------------------12---12--12--12------|
G|--12-------------------------------------------------------|
D|-----------------------------------------------------------|
A|-----------------------------------------------------------|
E|-----------------------------------------------------------|

(continued)
e|------------------------------12/14--14^---12---19----19---|
B|--12-13-15-13--12--12-12-----------------------------------|
G|---------------------------12------------------------------|
D|-----------------------------------------------------------|
A|-----------------------------------------------------------|
E|-----------------------------------------------------------|


Verse (Guitar 2, each hit 2 times)
e|-----------------------------------------------------------|
B|-----------------------------------------------------------|
G|--5-5-5-5--2-2-2-2-----------------------------------------|
D|--5-5-5-5--2-2-2-2--2-2-2-2-2-2-2-2------------------------|
A|--3-3-3-3--0-0-0-0--2-2-2-2-2-2-2-2------------------------|
E|--------------------0-0-0-0-0-0-0-0------------------------|


Riff 1
e|-----------------------------------------------------------|
B|-----------------------------------------------------------|
G|--9-9-9-9-9-9-9-9-9-9-9-9-9-9-9-9--------------------------|
D|-----------------------------------------------------------|
A|-----------------------------------------------------------|
E|-----------------------------------------------------------|


Chorus (each hit 2 times)
e|-----------------------------------------------------------|
B|-----------------------------------------------------------|
G|--5-5-5-5--7-7-7-7-----------------------------------------|
D|--5-5-5-5--7-7-7-7--2-2-2-2-2-2-2-2------------------------|
A|--3-3-3-3--5-5-5-5--2-2-2-2-2-2-2-2------------------------|
E|--------------------0-0-0-0-0-0-0-0------------------------|


Riff 2
e|---------------------------------------------15---------12-|
B|--10/1210/12-------------------------------------12-------|
G|--------------13---12--11--9------------------------------|
D|-----------------------------------------------------------|
A|-----------------------------------------------------------|
E|-----------------------------------------------------------|

(continued)
e|---------------------------15---14--15---------------------|
B|-----------------------------------------------------------|
G|--11---9--------------------------------------------------|
D|-----------------------------------------------------------|
A|-----------------------------------------------------------|
E|-----------------------------------------------------------|


Riff 3
e|--15--------12--------15--------12--------15---17---16-----|
B|-------12------------------12------------------------------|
G|-----------------------------------------------------------|
D|-----------------------------------------------------------|
A|-----------------------------------------------------------|
E|-----------------------------------------------------------|

(continued)
e|--15---17---16--------15---17---16--------15---17---19^----|
B|-----------------------------------------------------------|
G|-----------------------------------------------------------|
D|-----------------------------------------------------------|
A|-----------------------------------------------------------|
E|-----------------------------------------------------------|


Текст, аккорды и табулатура для песни "Go With The Flow", исполняет "Queens Of The Stone Age".
Используемые в песне аккорды можно найти в разделе Как брать аккорды. Аккорды для шестиструнной гитары. Другие песни можно найти на нашем сайте, воспользовавшись алфавитным указателем вверху страницы.


 
Ошибка в тексте? Выделите ошибку и нажмите Ctrl+Enter