-------------------------------------------------------------------------------
                 GO WITH THE FLOW - QUEENS OF THE STONE AGE
-------------------------------------------------------------------------------
Tabbed by: PAUL SMITH

Tuning: e B G D A E
Intro; lead guitar
e|--------------------------------------------------------19~----------------|
B|--19-17-19-17~---12~~---12-13-15-13-12~--19-17-19b21-17--------------------|
G|---------------------------------------------------------------------------|
D|---------------------------------------------------------------------------|
A|---------------------------------------------------------------------------|
E|---------------------------------------------------------------------------|

Verse; repeat as many times as possible
e|---------------------------------------------------------------------------|
B|---------------------------------------------------------------------------|
G|------------------------------------5-5-5-5-5-5-5-5--2-2-2-2-2-2-2-2-------|
D|-2-2-2-2-2-2-2-2-2-2-2-2-2-2-2-2-2--5-5-5-5-5-5-5-5--2-2-2-2-2-2-2-2-------|
A|-2-2-2-2-2-2-2-2-2-2-2-2-2-2-2-2-2--3-3-3-3-3-3-3-3--0-0-0-0-0-0-0-0-------|
E|-0-0-0-0-0-0-0-0-0-0-0-0-0-0-0-0-0-----------------------------------------|

Fills; these are played through out the verses by the lead guitar
e|------------------|-----------|---------------|---------------------------|
B|-12~-13-15-13-12~-|-13-12-10~-|---------------|-15b17---------------------|
G|------------------|-----------|-16~~-14~~-9~~-|-------14b19-12b-----------|
D|------------------|-----------|---------------|-----------------14-12-14~-|
A|------------------|-----------|---------------|---------------------------|
E|------------------|-----------|---------------|---------------------------|
                                  

Chorus; play as needed
e|---------------------------------------------------------------------------|
B|---------------------------------------------------------------------------|
G|-5-5-5-5-5-5-5-5--7-7-7-7-7-7-7-7------------------------------------------|
D|-5-5-5-5-5-5-5-5--7-7-7-7-7-7-7-7--2-2-2-2-2-2-2-2-2-2-2-2-2-2-2-2---------|
A|-3-3-3-3-3-3-3-3--5-5-5-5-5-5-5-5--2-2-2-2-2-2-2-2-2-2-2-2-2-2-2-2---------|
E|-----------------------------------0-0-0-0-0-0-0-0-0-0-0-0-0-0-0-0---------|

thats it, enjoy! Oh, and also play the third fill along with the chorus, but  
try playing them as volume swells by turning the volume down hitting/hammering 
on the note and then turning the volume up.


Текст, аккорды и табулатура для песни "Go With The Flow", исполняет "Queens Of The Stone Age".
Используемые в песне аккорды можно найти в разделе Как брать аккорды. Аккорды для шестиструнной гитары. Другие песни можно найти на нашем сайте, воспользовавшись алфавитным указателем вверху страницы.


 
Ошибка в тексте? Выделите ошибку и нажмите Ctrl+Enter