Band: Queens Of The Stone Age
Song: First It Giveth
CD: Songs For The Deaf
Record: Interscope

Intro
D#-|------------------------------|
A#-|------------------------------|
F--|-3333333-555555---------------|
C--|----------------555555-333333-|

D#-|--------------------------------|
A#-|--------------------------------|
F--|-3333333-555555-7---------------|
C--|------------------555555-000000-|

Verse
D#-|------------------------------|
A#-|------------------------------|
F--|-3333333-555555---------------|
C--|----------------555555-333333-|

D#-|--------------------------|
A#-|--------------------------|
F--|-3333333-555555-777777777-|
C--|--------------------------|

D#-|-----------------------------|
A#-|-----------------------------|
F--|-333333-555555---------------|
C--|---------------555555-333333-|

D#-|------------------------------|
A#-|------------------------------|
F--|-333333-555555-777777---------|
C--|----------------------5555555-|

D#-|----------------------------|
A#-|----------------------------|
F--|-333333-555555--------------|
C--|---------------55555-000000-|

D#-|----------------------------|
A#-|----------------------------|
F--|-333333-555555--------------|
C--|---------------555555555555-|

D#-|-----------------------------|
A#-|-----------------------------|
F--|-333333-555555---------------|
C--|---------------555555-333333-|

D#-|-----------------------------|
A#-|-----------------------------|
F--|-333333-555555---------------|
C--|---------------555555-000000-|

D#-|----------------------------------|
A#-|-----------------------------7h97-|
F--|-333333-555555-777777-999999------|
C--|----------------------------------|

D#-|---------------------------|
A#-|---------------------------|
F--|-333333-555555-------------|
C--|---------------55555555555-|

Chorus 1(Finally!)
D#-|----------------------------------------------------------------|
A#-|----------------------------------------------------------------|
F--|-55-3-55-3-555-3-55-3-55-3-77-5-77-5-777-5-77-5-77--------------|
C--|---------------------------------------------------555555-33333-|

D#-|----------------------------------------------------------------|
A#-|----------------------------------------------------------------|
F--|-55-3-55-3-555-3-55-3-55-3-77-5-77-5-777-5-77-5-77--------------|
C--|---------------------------------------------------555555-00000-|

Post-Chorus
D#-|----------55-5-5-|
A#-|-55-5-5-5--------|
F--|-----------------|
C--|-----------------|

D#-|---------22-2-2-|
A#-|-22-2-2-2-------|
F--|----------------|
C--|----------------|

Verse 2

Same as verse 1, just with a few variations.

Chorus 2
D#-|----------------------------------------------------------------|
A#-|----------------------------------------------------------------|
F--|-55-3-55-3-555-3-55-3-55-3-77-5-77-5-777-5-77-5-77--------------|
C--|---------------------------------------------------555555-33333-|

D#-|----------------------------------------------------------------|
A#-|----------------------------------------------------------------|
F--|-55-3-55-3-555-3-55-3-55-3-77-5-77-5-777-5-77-5-77--------------|
C--|---------------------------------------------------555555-00000-|

D#-|------------------------------------------------------|
A#-|---------------3/7-99-7-999-7-99-7-99-7---------------|
F--|-55-3-555-3-55--------------------------------7777777-|
C--|----------------------------------------555555--------|

Post-Chorus 2
D#-|---------------|
A#-|---------------|
F--|--------777777-|
C--|-555555--------|

Ending
D#-|---------55-5-5-|
A#-|-55-5-5-5-------|
F--|----------------|
C--|----------------|

Alright, that sounds like its all of it. hope you all enjoy it!

Tabbed by Jess (Aka norin)


Текст, аккорды и табулатура для песни "First It Giveth", исполняет "Queens Of The Stone Age".
Используемые в песне аккорды можно найти в разделе Как брать аккорды. Аккорды для шестиструнной гитары. Другие песни можно найти на нашем сайте, воспользовавшись алфавитным указателем вверху страницы.


 
Ошибка в тексте? Выделите ошибку и нажмите Ctrl+Enter