Tabbed By: PeaRce
EADG
All the pieces are here without having to downtune like all the other tabs
hope this is right...    should be.

VERSE
G-------------------------------------|
D--------------------5--6-------------|
A---------8h9p8----6------------------|
E--1-1---------------------1---3---4--|

G-------------------------------------------|
D---------------------------3--5--6--5--3---|
A---------8h9p8----6h7p6--------------------|
E--1-1--------------------------------------|

BRIDGE/CHORUS
G--------------------------|                    |------|
D--3--1--3--5--6--5--3--1--| a bunch      then  |--3~--|
A--------------------------| of times    finally|------|
E--------------------------|                    |------|

CHORUS/OUTRO
G-------------------------|
D---------6--66---5---3---|
A-------------------------|
E--1--1-------------------|   I WROTE CHORUS TWICE CUZ IM NOT SURE OF THE
                              SONG STRUCTURE, JUS FIT IT 2GETHER N ITS FINE.


Текст, аккорды и табулатура для песни "Better Living Through Chemistry", исполняет "Queens Of The Stone Age".
Используемые в песне аккорды можно найти в разделе Как брать аккорды. Аккорды для шестиструнной гитары. Другие песни можно найти на нашем сайте, воспользовавшись алфавитным указателем вверху страницы.


 
Ошибка в тексте? Выделите ошибку и нажмите Ctrl+Enter