Queen: These are the days...

guitar solo
|------------------------------------------|
|-----------________-----------------------|
|--b14V-----14r12p10-9---7--7/9---10--9v---|
|------------------------------------------|
|------------------------------------------|
|------------------------------------------|

|--------------------------------------------------------------------------------|
|--------------------------------------------------------------------------------|
|-10h12----10--9----10--7-----9--7---7--9--10r9-7-9p75----14p12-14b15r10----12--|
|--------------------------------------------------------------------------------|
|--------------------------------------------------------------------------------|
|--------------------------------------------------------------------------------|

|----12b13v---13r12p10----10------------------------------------------|
|-10-------------------13----13p10----10------------------------------|
|----------------------------------12----12p109-10p9-----------------|
|-----------------------------------------------------12p10-12/14___-|
|---------------------------------------------------------------------|
|---------------------------------------------------------------------|

|----14b15v---15r14p12----12--------------------------------------|
|-12-------------------15----15p12----12----------------------15--|
|----------------------------------14----14p1211-12p11-----------|
|-------------------------------------------------------14p12-----|
|-----------------------------------------------------------------|
|-----------------------------------------------------------------|

|------------------------------------------------------------------------------------|
|-15/17-1513---12__108-10/12----------------------------17r15brbrp13-12-13___/20--|
|-----------------------------------------------------------|
|------------------------------------------------------------------------------------|
|------------------------------------------------------------------------------------|
|------------------------------------------------------------------------------------|

|--------------------------------------------|--------------20--19--17---------------------------------|
|-20b22----20--18--17------------------------|-20b22___rp18------------20-18-17------------------------|
|---------------------19--17--16-17-19-------|----------------------------------19-17-16-17-19----17---|
|--------------------------------------17----|-------------------------------------------------17------|
|--------------------------------------------|---------------------------------------------------------|
|--------------------------------------------|---------------------------------------------------------|

|--------------------------------------------------------------------------|
|-16b17--------------------------------------------------------------------|
|--------17-15-------------------------------------------------------------|
|--------------17-16-15-13b------------------------------10--12b13r-12p10--|
|---------------------------15-13--------------------12--------------------|
|---------------------------------15-14-12b13___--------------------------|


Текст, аккорды и табулатура для песни "These Are The Days", исполняет "Queen".
Используемые в песне аккорды можно найти в разделе Как брать аккорды. Аккорды для шестиструнной гитары. Другие песни можно найти на нашем сайте, воспользовавшись алфавитным указателем вверху страницы.


 
Ошибка в тексте? Выделите ошибку и нажмите Ctrl+Enter