Rain must fall
 Queen
 Miracle
 
 -----------------------------------------------------------------|
 |..-----22---22-----------22---22------------22p19-----22p19-----22---22-----|
 |--21b23--b23--b23--r21b23--b23--b23--r21-b23-----21b23-----21b23--b23--b23--|
 -----------------------------------------------------------------|
 -----------------------------------------------------------------|
 -----------------------------------------------------------------|
 
 |-22b23---22-20-18----------------------------------|
 -------21-20-18-------------------------|
 ----------------20-19-17----------------|
 -------------------------20-18-17-------|
 ----------------------------------20-18|
 ----------------------------------------|
 
 ------------------------|
 |-/15--t20p17--t20b22p19r_17-17__--|
 ------------------------|
 ------------------------|
 ------------------------|
 ------------------------|
 
 -----------------------------|
 |-----15--t20p17--t20b22p19r_17t20p17v---|
 |-16-------------------------------------|
 -----------------------------|
 -----------------------------|
 -----------------------------|
 
 ----------------------------------------------------|
 |-15-17b19_t20p(b19)_t20__p19r17b19_r17p1517b19_t22-pb19_r17p15-|
 ----------------------------------------------------|
 ----------------------------------------------------|
 ----------------------------------------------------|
 ----------------------------------------------------|
 
 
 -----------------------|
 |-17b19t20---17b19t22---17b19t20---|
 -----------------------|
 -----------------------|
 -----------------------|
 -----------------------|
 
 -------------------------------------------------------|
 |-17b19__t20--17b19t20p(b19)t20p(b19)t20p(b19)t20p(b19)t20p(b19)t20|
 -------------------------------------------------------|
 -------------------------------------------------------|
 -------------------------------------------------------|
 -------------------------------------------------------|
 
 |-1417--------------------------------------------------|
 |-----t20p17t20p16t20p15t20p16t20p17t20p(b19)t20......--|
 --------------------------------------------|
 --------------------------------------------|
 --------------------------------------------|
 --------------------------------------------|



Текст, аккорды и табулатура для песни "Rain Must Fall", исполняет "Queen".
Используемые в песне аккорды можно найти в разделе Как брать аккорды. Аккорды для шестиструнной гитары. Другие песни можно найти на нашем сайте, воспользовавшись алфавитным указателем вверху страницы.


 
Ошибка в тексте? Выделите ошибку и нажмите Ctrl+Enter