Invisible man
Queen
Miracle

|----------------------------------------------------------------------------|
|----------------------------------------------------------------------------|
|-15b16-b17-b17-16-b19-17b19-17-b19-17-b19r-17-17b19-17-b19-17-b19-17-b19-17-|
|----------------------------------------------------------------------------|
|----------------------------------------------------------------------------|
|----------------------------------------------------------------------------|

|---------------------------------------------------------------------|
|-16-2020191817--------20--1817--------20x1817--------20191817--------|
|--------------20191817--(0)---20191817-------20191720--------20191817|
|---------------------------------------------------------------------|
|---------------------------------------------------------------------|
|---------------------------------------------------------------------|

|----------------------20191817--------------------|
|20191917----------2019--------20191817191817------|
|--------2019181717--------------------------201917|
|--------------------------------------------------|
|--------------------------------------------------|
|--------------------------------------------------|

|--------------------------------------------|
|--------------------------------------20----|
|------------------------17___/19b__21--1720|
|-2019171917--1717___/20--------------------|
|-----------18-------------------------------|
|--------------------------------------------|

|----------------------------____----------------------|
|171817--172017--171817--17201817--171817--172017--1720|
|------20------20------20--------20------20------20----|
|------------------------------------------------------|
|------------------------------------------------------|
|------------------------------------------------------|

|------------------------------20---(1818)20191817-----------------|
|-20b22vv--20191817-------------------------------20191817---------|
|------------------2019171917vv---17----------------------20191817-|
|------------------------------------------------------------------|
|------------------------------------------------------------------|
|------------------------------------------------------------------|

|-20191817-----------------20191817..|
|---------20191817-------------------|
|-----------------20191817-----------|
|------------------------------------|
|------------------------------------|
|------------------------------------|


Текст, аккорды и табулатура для песни "Invisible Man", исполняет "Queen".
Используемые в песне аккорды можно найти в разделе Как брать аккорды. Аккорды для шестиструнной гитары. Другие песни можно найти на нашем сайте, воспользовавшись алфавитным указателем вверху страницы.


 
Ошибка в тексте? Выделите ошибку и нажмите Ctrl+Enter