guitar solo:
|----------|------18--------------18----------------|
|-13-14-15-|----------------------------------------|
|----------|----------------------------------------|
|----------|----------------------------------------|
|----------|----------------------------------------|
|----------|----------------------------------------|
|multitrack backing:
|----------|----------------------------------------|
|----------|-11-------------------------------------|
|----------|-12--------12___b13--------10---9-10--7-|
|----------|-13--------14___b15--------12--11-12--8-|
|----------|-----------16___b17--------13--12-13-10-|
|----------|----------------------------------------|

|-----------15----15-------------------------__----------------------------------15--16-18-b20--b20--b20|
|--------------18-----------------------b20_rbr18p16-15--16-18---------15-16--18------------------------|
|---------------------------------------------------------------15-17-----------------------------------|
|-------------------------------------------------------------------------------------------------------|
|-------------------------------------------------------------------------------------------------------|
|-------------------------------------------------------------------------------------------------------|
|
|-------------------------------------------|
|----------------------11-10-11---13__/16---|
|12-11-12--------------12-11-12---13__/15---|
|13-12-13--------------12-11-12---16--------|
|15-14-15-----------------------------------|
|-------------------------------------------|

|---x-----------------------------15-15---------------------15----|
|-x------------15-___________-----------------------b20--18-------|
|----------16-----17b19r17p16-17----------------------------------|
|-------17--------------------------------------------------------|
|-----------------------------------------------------------------|
|-----------------------------------------------------------------|

|-----------------------------------------Wah-Wah-----------------------|
|----------------------------------------->>>>


Текст, аккорды и табулатура для песни "Good Old Fashioned Lover Boy", исполняет "Queen".
Используемые в песне аккорды можно найти в разделе Как брать аккорды. Аккорды для шестиструнной гитары. Другие песни можно найти на нашем сайте, воспользовавшись алфавитным указателем вверху страницы.


 
Ошибка в тексте? Выделите ошибку и нажмите Ctrl+Enter