Queen: Dear Friends
 piano arranged for acoustic guitar
 
 
 |----------10----9-7---5-------|-5---10---14---14-12---10----9-------|
 |-7---10---10------8---5---7---|-7---7----10------10---10-9-10-------|
 |-7---11---11------7---7-6-7---|-7---7----11-------9----9----9-------|
 |-7---12---12--------------7---|--------7-12------11----9----7-------|
 |-5----9----------10-9-7---5---|-5-5-9---------------------------0---|
 D--------------------------------------------------------|
 
 |-2---0---3---2-------------------0---0---2---2---0---2---3---|
 |-3---3---3---3---3---3---3-------3---3---3---3---3---3---2---|
 |-2---2---4---2---4---2---4-------2---2---2---2---2---2---2---|
 |-0---------------5---4---5---2-----0---0---0---0-------------|
 |-----4---2---0-------------------------------------0---0-0---|
 D-----------------5---4---2-----------------------------------|
 
 |----------10-9-------7---5-----------|-5---10---14---14-12---10----9-------|
 |-7---10---10---12-10-8---5---7-------|-7---7----10------10---10-9-10-------|
 |-7----7---11---------7---7-6-7-------|-7---7----11-------9----9----9-------|
 |-7------7-12-----------------7-------|--------7-12------11----9----7-------|
 |---5--9-------------10-9-7---5-------|-5-5-9---------------------------0---|
 D-0-------------------------------0-----------------------------|
 
 |-2---0---3---2--------------------------------------------------|
 |-3---3---3---3---3---3---3------2---2---0---2---0---3---3-------|
 |-2---2---4---2---4---2---1------2---2---2---2---0---4---2-------|
 |-0---------------5---4---2------2---2---2---2---0---5---4-------|
 |-----4---2------------------------0---0---0---0---------5-------|
 D-------------4---5---4---2----------------------5-4-2-------0---|



Текст, аккорды и табулатура для песни "Dear Friends", исполняет "Queen".
Используемые в песне аккорды можно найти в разделе Как брать аккорды. Аккорды для шестиструнной гитары. Другие песни можно найти на нашем сайте, воспользовавшись алфавитным указателем вверху страницы.


 
Ошибка в тексте? Выделите ошибку и нажмите Ctrl+Enter