e)--5-6-5----9-10-9----------------------------------------------
B)---------------------------------------------------------------
G)---------------------------------------------------------------
D)---------------------------------------------------------------
A)---------------------------------------------------------------
E)---------------------------------------------------------------


e)--33-55-77-55--101010------------------------------------------
B)---------------------------------------------------------------
G)---------------------------------------------------------------
D)---------------------------------------------------------------
A)---------------------------------------------------------------
E)---------------------------------------------------------------

Куплет и припев 
e)---------------------------------------------------------------
B)---------------------------------------------------------------
G)---------------------------------------------------------------
D)---------------------------------------------------------------
A)--55-77-99-77--------------------------------------------------
E)--33-55-77-55--------------------------------------------------

Проигрыш
e)---------------------------------------------------------------
B)---------------------------------------------------------------
G)---------------------------------------------------------------
D)---------------------------------------------------------------
A)--55-77-99-77 |2р--55-77-1212-99 |2р----------------------------
E)--33-55-77-55 |2р--33-55-1010-77 |2р----------------------------

Есть ли у вас любимое место   Унитаз
Есть ли у вас прекрасное место   Унитаз
Очень и очень прекрасное место   Унитаз
Вы всегда сидите в нем   Унитаз    и т.д.


Текст, аккорды и табулатура для песни "Ваше любимое место - унитаз", исполняет "Пурген".
Используемые в песне аккорды можно найти в разделе Как брать аккорды. Аккорды для шестиструнной гитары. Другие песни можно найти на нашем сайте, воспользовавшись алфавитным указателем вверху страницы.


 
Ошибка в тексте? Выделите ошибку и нажмите Ctrl+Enter