Intro: (3 раза)
------------------------|
|-----9--------------9--------------|
|--10---10--------10---10-----------|
|--10-------10-10-10-------10-10-10-|
|--8--------8--8--8--------8--8--8--|
------------------------|

----------------|
|----6----------6-----------|
|--7---7------7---7---------|
|--7------7-7-7------7-7-7--|
|--5------5-5-5------5-5-5--|
----------------|

----------------|
|----3----------3-----------|
|--4---4------4---4---------|
|--4------4-4-4------4-4-4--|
|--2------2-2-2------2-2-2--|
----------------|

-------------------|
|----4-------6-------7---------|
|------5-------7-------8-------|
|-5-------7-------8-------9~~--|
|-3-------5-------6-------7~~--|
-------------------| 

Interlude: (2 раза)
---------------------------------------|
---------------------------------------|
---------------------------------------|
---------------------------------------|
|--2-2-2--2-4-2-5-2--5-5-5--5-7-5-8-5--3-5-3-6-2~--|
---------------------------------------|

Main Riff: (2 раза)
--------------------------------------------------------|
--------------------------------------------------------|
--------------------------------------------------------|
|--4-4-4-4-4-4-4-4-7-7-7-7-7-7-7-7-6-6-6-7-7-7-9-9-4-4-4-4-4-4-4-4--|
|--2-2-2-2-2-2-2-2-5-5-5-5-5-5-5-5-4-4-4-5-5-5-7-7-2-2-2-2-2-2-2-2--|
--------------------------------------------------------|

Восемьдесят второй год
Семнадцатое февраля
Было всего пять часов
После рабочего дня

Interlude: (2 раза)
Main Riff: (2 раза)

Люди спешили домой
Молча и не говоря
Ждал их дома уют
Но в метро они поехали зря 

Riff 2: (2 раза)
-----------------------------|
-----------------------------|
-----------------------------| (3 раза)
|--9-9-9-9-10-9-9-9-10-9-9-9-------------|
|--7-7-7-7-8--7-7-7-8--7-7-7----10-9-10--|
--------------------8--7-8---|

---------------------------|
---------------------------|
---------------------------|
|--9-9-9-9-10-9-9-9-10-9-10-9-10-9-10--|
|--7-7-7-7-8--7-7-7-8--7-8--7-8--8-7---|
---------------------------|

Main Riff: 

Riff 3: (2 раза)
--------------------------------------------------------------------------------|
--------------------------------------------------------------------------------|
--------------------------------------------------------------------------------|
|--10-10-10-10-10-10-10-10-7-7-7-7-7-7-7-7-4-4-4-4-4-4-4-4-5-5-5-5-7-7-7-7-8-8-8-8-9-9-9-9--|
|--10-10-10-10-10-10-10-10-7-7-7-7-7-7-7-7-4-4-4-4-4-4-4-4-5-5-5-5-7-7-7-7-8-8-8-8-9-9-9-9--|
|--8--8--8--8--8--8--8--8--5-5-5-5-5-5-5-5-2-2-2-2-2-2-2-2-3-3-3-3-5-5-5-5-6-6-6-6-7-7-7-7--|

Main Riff:

Олимпиада в восьмидесятом году
Правительство спешило подготовить Москву
Быстро строили ветку метро
Но не додумали только одно

Что когда строится важный объект
Всем супер срокам говориться "нет"
Точность, ответственность, качество сборки
Вот те параметры андерграунд стройки

Riff 3:

Ла-Ла-Ла-Ла-Ла-Ла...

Riff 4: (2 раза)
------------------------------------------|
------------------------------------------|
------------------------------------------|
|--2--4--2--4--2--4--7--6--2--4--2--4--2--4--9--7--6--|
|--2--2--2--2--2--2--5--4--2--2--2--2--2--2--7--5--4--|
------------------------------------------|

Main Riff:

Шум, крик, паники ужас
Скрежет деталей в маслянных лужах
Кто-то крикнул: "Спасайте детей!"
Но его сразу сбила огромная тень...
Эскалатор быстро двигался вниз
Люди полезли через карниз
Перегородка стала ломаться
А шестерни продолжали вращаться 

Riff 3:

Трагедия на Авиамоторной
Трагедия на Авиамоторной
Трагедия на Авиамоторной
По вине правительства не будет никогда

Трагедия на Авиамоторной
Трагедия на Авиамоторной
Трагедия на Авиамоторной
Правительство посадит, но только не себя

Riff 2: (2 раза)

Riff 3:

Из-за спешки и плохой сборки
Произошли "американские горки"
Восемь трупов в морг унесли
Тридцать человек в реанимацию отвезли 

Люди спешили домой
Молча и не говоря
Ждал их дома уют
Но в метро они поехали зря 

Трагедия на Авиамоторной
Трагедия на Авиамоторной
Трагедия на Авиамоторной
По вине правительства не будет никогда

Трагедия на Авиамоторной
Трагедия на Авиамоторной
Трагедия на Авиамоторной
Правительство посадит, но только не себя

Outro:

-------------------------------------------------------------------------------|
-------------------------------------------------------------------------------|
-------------------------------------------------------------------------------|
-------------------------------------------------------------------------------|
|-9-9-10-10-11-11-12-12-9-9-10-10-11-11-12-12-9-9-10-10-11-11-12-12-9-9-10-10-11-11-12-12--|
|-7-7-8--8--9--9--10-10-7-7-8--8--9--9--10-10-7-7-8--8--9--9--10-10-7-7-8--8--9--9--10-10--|

----------------|
----------------|
----------------|
|--9-9-9-9-9-9-9-9-9-9-9-9--|
|--7-7-7-7-7-7-7-7-7-7-7-7--|
----------------|


Текст, аккорды и табулатура для песни "Трагедия на Авиамоторной", исполняет "Пурген".
Используемые в песне аккорды можно найти в разделе Как брать аккорды. Аккорды для шестиструнной гитары. Другие песни можно найти на нашем сайте, воспользовавшись алфавитным указателем вверху страницы.


 
Ошибка в тексте? Выделите ошибку и нажмите Ctrl+Enter