E---------------------------------------------------------------------------
H|------9---------------9---------------6--------------6--------------3--------------3--
G|--10----10--------10-----10--------7-----7--------7-----5--------4-----4--------4----4
D|--10--------------10---------------7--------------7--------------4--------------4-----
A|--8---------8-8-8-8----------8-8-5-5--------5-5-5-5--------5-5-2-2--------2-2-2-2-----
E---------------------------------------------------------------------------

E--------------------------:||Повторить с начала (3 раза)
H|--4---------5---------6---------7----:||
G||----------5-----5---6-----6---7-----7---8-----8-:||
D||----------5---------6---------7---------8-------:||
A||--2-2-2-3-3-------4-4-------5-5-------6-6-------:||
E--------------------------:||


A--------7-7---7-9-7-10----------------------------------|
E|--7-7---7-9-7-10--------------------9-9---9-10---12---7-...........|x2

Riff a:
A|-9---9-9-9-11-12--12-12-12-12-12-12-12-11-11-11-11-12-14-9--9-9-9-9-9-9-9-|
E|-7---7-7-7-9--10--10-10-10-10-10-10-10-9--9--9--9--10-12-7--7-7-7-7-7-7-7-|x2(за 4 строчки)
       
82й год 
17е февраля
Было 17 часов 
После рабочего дня

a--------7-7---7-9-7-10----------------------------------|
e|--7-7---7-9-7-10--------------------9-9---9-10---12---7-...........|x2


A|-9---9-9-9-11-12--12-12-12-12-12-12-12-11-11-11-11-12-14-9--9-9-9-9-9-9-9-|
E|-7---7-7-7-9--10--10-10-10-10-10-10-10-9--9--9--9--10-12-7--7-7-7-7-7-7-7-|x2(за 4 строчки)

Люди спешили домой
Молча не говоря
Ждал их дома уют
Но в метро они поехали зря
                               
Riff b:
a|--7-7-7-7-8-7---7-8-7---7-------|--7-7-7-7-8-7---7-8-7-8-7-8-7-8-7--|
e---------------8-7-8-


Текст, аккорды и табулатура для песни "Трагедия на Авиамоторной", исполняет "Пурген".
Используемые в песне аккорды можно найти в разделе Как брать аккорды. Аккорды для шестиструнной гитары. Другие песни можно найти на нашем сайте, воспользовавшись алфавитным указателем вверху страницы.


 
Ошибка в тексте? Выделите ошибку и нажмите Ctrl+Enter