'-приглушать звук ПРАВОЙ рукой (для левши соответсвенно левой) .
e| |-----------------------| |-----------------------|-----------------------|
b|*|-----------------------|*|-----------------------|-----------------------|
g| |-----------------------| |-----------------------|-----------------------|
d| |-----------------------|
|-5---5'-5'-5'-5'-5'-5'-|-4--------7---7-7-7-5--|
a|*|-5---5'-5'-5'-5'-5'-5'-|*|-3---3'-3'-3'-3'-3'-3'-|-2--------5---
5-5-5-3--|
e| |-3---3'-3'-3'-3'-3'-3'-|
|-----------------------|-----------------------|
Подпольные людские помойки
За чертой больших городов...
Тела, прошедшие срок свой,
Приносят сюда круглый год.
Бульдозеры работают четко-
Сгребают в кучу все!
Вчера еще были вы живы,
А сегодня вы все - гнилье!
Дикие крики орутся под такую тему:
e|-----------------|----------------------|-----------------|-----------------|

b|-----------------|----------------------|-----------------|-----------------|
|
g|-----------------|----------------------|-----------------|-5------4------2-|
| Играть несколько раз, если честно не помню
d|-----------------|----------5---------4-|-----------------|-----------------|
| если честно не помню.
a|-2---2-2-2-2-2-2-|-3--------------------|-3---3-3-3-3-3-3-|-----------------|
|
e|-----------------|----------------------|-----------------|-----------------|
/
После смерти, после смерти
Все становятся равны,
Ведь умрут все, ведь умрут все,
Ведь умрем и я, и ты!
А при жизни, а при жизни
Общество определит,
Кем ты будешь, кем ты станешь,
Кемты станешь, как мне жить?
Здесь перед куплетом, после диких криков играется вот что:
e|-----------------|------------------|
b|-----------------|------------------|
g|-----------------|------------------|
d|-----------------|-----------4-4-4--|
a|-2---2-2-2-2-2-2-|-3-3-3--5---------|
e|-----------------|------------------|
Мы идем по улице с тобой неспеша.
Мы смотрим на помойки, и там лежат:
Там лежит министр и панк малой,
Там лежит друг детсва и нежит взор.
И все вместе они там равны,
И общество уже забило на них!
Если вы разберете то, что играется в последнем куплете, напишите мне:
[email protected]
Так давайте ж, так давайте ж,
Общество разрушим мы,
Чтобы выберать дорогу ту, которую хотим!
Чтобы делать то, что хочешь,
Мы не обязаны скажем им.
Будь самому себе начальник, сам собой руководи!



Текст, аккорды и табулатура для песни "Помойки Из Людей", исполняет "Пурген".
Используемые в песне аккорды можно найти в разделе Как брать аккорды. Аккорды для шестиструнной гитары. Другие песни можно найти на нашем сайте, воспользовавшись алфавитным указателем вверху страницы.


 
Ошибка в тексте? Выделите ошибку и нажмите Ctrl+Enter