Вступление

        E5                                               D5 
D|---------9-9-7-7-9-9------9-9-7-7-9-9-----9-9-7-7-9-9-----7-7-5-5-7-7-|
A|-----7-7--------------7-7-------------7-7-------------5-5-------------|

        E5                                               D5              E5
D|---------9-9-7-7-9-9------9-9-7-7-9-9-----9-9-7-7-9-9-----7-7-5-5-7-7--9________-|
A|-----7-7--------------7-7-------------7-7-------------5-5--------------7________-|


Вступление, проигрыш, в общем основная тема...


        E5
D--9---9---7---7---9---9-----------9---9---7---7---9---9--|
A|-----7---7---------------------------7---7--------------------------|

        G5
D|---------12--12--10--10--12--12-------------12--12--10--10--12--12--|
A|-10--10----------------------------10--10---------------------------|

        C5
D--5---5---3---3---5---5-----------5---5---3---3---5---5--|
A|-----3---3---------------------------3---3--------------------------|

        D5
D|------7---7-|
A|-----5---5--|
    N-раз

        E5
D--9---9---7---7---9---9-----------9---9---7---7---9---9--|
A|-----7---7---------------------------7---7--------------------------|

        G5
D|---------12--12--10--10--12--12-------------12--12--10--10--12--12--|
A|-10--10----------------------------10--10---------------------------|

        C5
D--5---5---3---3---5---5-----------5---5---3---3---5---5--|
A|-----3---3---------------------------3---3--------------------------|

        D5     E5
D|------7---7--9________-|
A|-----5---5---7________-|
  ____  ____/
       /
     N-раз

Аккорды
там что-то типа того
E5           G5             C5
не будем мы участвовать в чужих делах
D5             C5         H5
листовках, поручениях и орденах
E5              G5            C5
не будем мы проплачивать вам партналог
D5            C5            H5
и тероризм хотим чтобы быстрее здох

E5           G5
кристально чистая ночь,
D5           C5         H5
проведенная только с тобой
E5             G5
кристал нахт, кристал нахт
D5                C5        H5
кристал нахт, кристал на-а-а-ахт



Текст, аккорды и табулатура для песни "Kristall Nacht", исполняет "Пурген".
Используемые в песне аккорды можно найти в разделе Как брать аккорды. Аккорды для шестиструнной гитары. Другие песни можно найти на нашем сайте, воспользовавшись алфавитным указателем вверху страницы.


 
Ошибка в тексте? Выделите ошибку и нажмите Ctrl+Enter