Intro: (Быстро и медленно, когда после припева - без --------------  этой части    
-------------------------------------------------------------------------|
-------------------------------------------------------------------------|
-------------------------------------------------------------------------|
-----------------7-7--5-5--7-7-------------------------------------------|
|------9-9--7-7--9-9----5-5------------------------5-5--3-3--5-5-------5-5--3-3--5-5-|
|-7-7-----------------------------------------3-3-------------------5----------------|


--|
--|
--|
--|
|--9----------|
|--7----------|

Main Riff:
-------|
-------|
-------|
|----7-----9-------|
|--9-5-5---7-7-9---|
|--7---3-----5-7---|

Chorus:
-----|
-----|
-----|
|-----7----------|
|--9--5--5--7--4-|
|--7-----3--5--2-|





Мы не пойдем с тобой громить ветрины 
Не будем поджигать подземный магазин 
Нас не касается исход резни 
Нам просто наплевать с тобою мы одни 

Кристально чистая ночь 
Проведенная только с тобой 
Кристал Нахт Кристал Нахт, 
Кристал Нахт Кристал Нааахт! 

Не будем мы учавствовать 
В чужих делах 
В листовках, поручениях и орденах 
Не будем мы проплачивать вам партналог 
И терроризм хотим чтоб побыстрее здох! 

Кристально чистая ночь 
Проведенная только с тобой 
Кристал Нахт Кристал Нахт, 
Кристал Нахт Кристал Нааахт! 

И ангелы летают в небесах 
Как раненые крысы чистотой 
И капельки воды на на облаках 
Токсичные отходы под Москвой 

Кристально чистая ночь 
Проведенная только с тобой 
Кристал Нахт Кристал Нахт, 
Кристал Нахт Кристал Нааахт!


Текст, аккорды и табулатура для песни "Kristall Nacht", исполняет "Пурген".
Используемые в песне аккорды можно найти в разделе Как брать аккорды. Аккорды для шестиструнной гитары. Другие песни можно найти на нашем сайте, воспользовавшись алфавитным указателем вверху страницы.


 
Ошибка в тексте? Выделите ошибку и нажмите Ctrl+Enter