Куплет 1:
E -----------------------------------------------
B -----------------------------------------------
G -----------------------------------------------  (два раза за куплет)
D -7-7-7-7-7-4-4-4-4-4-----------7-7-7-7-7-5-4-6-  
A -5-5-5-5-5-2-2-2-2-2-5-5-7-7-7-5-5-5-5-5-3-2-4-
E ---------------------3-3-5-5-5-----------------

Эй ты ты послушай
Как загажены все души
Здесь за просто так
Не положат и венка
Вот ты взял и умер
И совсем ты не подумал
Что индустрия смерти 
Зарабатывает на смерти

Припев:
E ---------------------------------
B ---------------------------------
G ---------------------------------  (четыре раза за припев)
D -7-7-7-7-4-4-4-4-----------------  
A -5-5-5-5-2-2-2-2-5-5-5-5-7-7-7-7-
E -----------------3-3-3-3-5-5-5-5-

Для индустрии смерти ты - будущий клиент
Ведь люди умирают а бессмертных нет
Индустрия смерти заработает вдвойне
Поднимет она стоимость на мне и на тебе


Хей-хей ла-ла-ла-ли-ла-ла-ла-лай!
Ла-лай ла-ла-ли-ла-ла-ла-ла-ла!(те же аккорды что и на куплете)

Куплет 2:
Люди в горе не помнят о деньгах
И их накопления окажутся в руках
Других людей которые всегда
Продают свои души за деньги навсегда
Которые работают на кладбище в бюро
В бухгалтерии морга в крематории давно
И все это можно назвать одним
Индустрия смерти - бизнесс для мудил



Дальше опять припев и вот это вот "Ла-ла-ла..." раза три.
И вроде все на этом.


Текст, аккорды и табулатура для песни "Индустрия смерти", исполняет "Пурген".
Используемые в песне аккорды можно найти в разделе Как брать аккорды. Аккорды для шестиструнной гитары. Другие песни можно найти на нашем сайте, воспользовавшись алфавитным указателем вверху страницы.


 
Ошибка в тексте? Выделите ошибку и нажмите Ctrl+Enter