Intro (4 раза)

                 (2 раза)	             (2 раза)
-------------------|
-------------------|
-------------------|
---------------||--4--4--5--4--4--5--4--4--|
|--5--5--6--5--5--6--5--5--||--2--2--2--2--2--2--2--2--|
|--3--3--3--3--3--3--3--3------|
	         (2 раза)
----------------| ---------------|
----------------| ---------------|
----------------| ---------------|
|--9--9--10--9--9--10--9--9-| |--5--5--7--7--5--5--4-----|
|--7--7--7---7--7--7--7--7--| |--3--3--5--5--3--3--2-----|
----------------| ---------------|

Это во всем психоделия

Outro (4 раза)

---------------------------------------|
---------------------------------------|
|--7--7--7----9--9--9----12--12--12----14--14--14--|
|--5--5--5----7--7--7----10--10--10----12--12--12--|
---------------------------------------|
---------------------------------------|

Riff 1

------------------------------------------------------------------------------------|
------------------------------------------------------------------------------------|
------------------------------------------------------------------------------------|
---------------4--4--4--4--4--4--4--4--9--9--9--9--9--9--9--9--5--5--7--7--5--5--4--|
|--5--5--5--5--5--5--5--5--2--2--2--2--2--2--2--2--7--7--7--7--7--7--7--7--3--3--5--5--3--3--2--|
|--3--3--3--3--3--3--3--3-----------------------------------------------------------------------|

Мрачный город, как долина - психотропная картина
Каждый сам здесь за себя - это во всем психоделия
Индустрия завдоская ночью город украшает
Нагнетает мрачный ужас , нафиг этот нужен этот нам город нужен 

Riff 2
				(4 раза) 		(4 раза)
------------------------------------|-------|
------------------------------------|-------|
------------------------------------|-------|
---4--4--4--4--9--9--7--7--4--4-----|-------|
|--5--5--5--5--2--2--2--2--7--7--5--5--2--2-----||---7--7--5--5--2--|
|--3--3--3--3-----------------------------------|-------|

Философия Урбанистического Безвремения
Философия Урбанистического Безвремения
Философия Урбанистического Безвремения
Философия Урбанистического Безвремения

Riff 1

Здесь законы боевые, мы для города - чужие
Рады видеть нас на дне, город лежит лишь тупо в своем огне  
Ай воз шкип, ам май ден либен, Ай ду фак капитулирен. 
Ай воз невер кепдинайд, бай бай бай бай бая бай

Riff2

Философия Урбанистического Безвремения
Философия Урбанистического Безвремения
Философия Урбанистического Безвремения
Философия Урбанистического Безвремения

Riff 1

Мрачный город, как долина - психотропная картина
Каждый сам здесь за себя - это во всем психоделия
Индустрия завдоская ночью город украшает
Нагнетает мрачный ужас , нафиг этот нужен этот нам город нужен

Riff 2

Философия Урбанистического Безвремения
Философия Урбанистического Безвремения
Философия Урбанистического Безвремения
Философия Урбанистического Безвремения


Текст, аккорды и табулатура для песни "Философия урбанистического безвремения", исполняет "Пурген".
Используемые в песне аккорды можно найти в разделе Как брать аккорды. Аккорды для шестиструнной гитары. Другие песни можно найти на нашем сайте, воспользовавшись алфавитным указателем вверху страницы.


 
Ошибка в тексте? Выделите ошибку и нажмите Ctrl+Enter