Riff a:
D-----------------------10101010-8-8-8-8-6-6-6-6-6-6-6-6-|
A|-6-6-6-6-6-6-6-6-1010101010101010-8-8-8-8--6-6-6-6-4-4-4-4-4-4-4-4-|
E|-4-4-4-4-4-4-4-4-8-8-8-8-8-8-8-8-----------------------------------|gtr.
 |                                                                   |
A-----------------------8-8-8-8--6-6-6-6-4-4-4-4-3-3-3-3-|
E|-4-4-4-4-4-4-4-4-8-8-8-8-8-8-8-8-----------------------------------|Bass

Riff b:
D|-10--10--8---8---6-|
A|-8---8---6---6---4-|gtr.
 |                   |
A|-8---8---6---6---4-|Bass

INTRO1:(басс играется почти как гитара)

A|-6---6---7---6-6--6.--6-7-6-7-6-6---6---7---6-6--6.--6-7-6-7-6-|
E|-4---4---4---4-4--4.--4-4-4-4-4-4---4---4---4-4--4.--4-4-4-4-4-|gtr.

A|-4---4---5---4-4--4.--4-5-4-5-4-4---4---5---4-4--4.--4-5-4-5-4-|
E|-2---2---2---2-2--2.--2-2-2-2-2-2---2---2---2-2--2.--2-2-2-2-2-|gtr.

D-----------------------------------------------------------|
A|-9---9---10----9-9--9.--9-10-9-10-9-9---9---10---9-9--9.--9-10-9-10-9-|
E|-7---7---7-----7-7--7.--7-7--7-7--7-7---7---7----7-7--7.--7-7--7-7--7-|gtr.

D|-6-6-6-6-8-8-8-8-6-6-6-5-|
A|-4-4-4-4-6-6-6-6-4-4-4-3-|
E--------------|gtr.

INTRO2:

A|--6-6-7---6-6-7---6-6-7---6-6-7---|-4-4-5---4-4-5---4-4-5---4-4-5---|
E|--4-4-4-4-4-4-4-4-4-4-4-4-4-4-4-4-|-2-2-2-2-2-2-2-2-2-2-2-2-2-2-2-2-|gtr.

A|-9-9-10--9-9-10--9-9-10--9-9-10--|
E|-7-7-7-7-7-7-7-7-7-7-7-7-7-7-7-7-|gtr.

D|---6-6-6-6-8-8-8-8-6-6-6-5--|
A|---4-4-4-4-6-6-6-6-4-4-4-3--|
E-----------------|gtr. 

INTRO3:

D---------------------------------------------------------|
A|-6-6-6-6-6-6-6-6-6-6-6-6-6-6-6-6-10101010101010101010101010-10-1010-|
E|-4-4-4-4-4-4-4-4-4-4-4-4-4-4-4-4-8-8-8-8-8-8-8-8-8-8-8-8-8--8--8-8--|gtr.
                                                                      |                           
A----------------------------------------------------9-9--|
E|-4-4-4-4-4-4-4-4-4-4-6-6-8-8-9-9-8-8-9-9-8-8-9-9-8-8-9-9-11-11------|Bass

D|-10101010101010101010101010101010-6---6---8---8---6---6-5-|
A|-8-8-8-8-8-8-8-8-8-8-8-8-8-8-8-8--4---4---6---6---4---4-3-|
E-----------------------------------------------|gtr.
 |                                                          |
A|-8-8-9-9-8-8-9-9-9-9-8-8-6-6-4-4--4-4-4-4-6-6-6-6-4-4-4-3-|
E-----------------------------------------------|Bass

INTRO4:
A----------------------10--------------12-|
E|-10--------------12---------------------------------|gtr.

==================================================================================

INTRO1
INTRO2(play 2 times)
INTRO3(play 2 times)
INTRO4(play 4 times)



INTRO3(1 раз за 4 строчки):
Мрачный город как долина
Психотропная картина
Каждый сам здесь за себя
Это по мозгам психоделия

Индустрия заводская
Ночью город украшает
Нагнетает мрачный ужас
Нафига такой нам этот город нужен
Нафига такой нам этот город нужен
Нафига такой нам этот город нужен

Riff a(1 раз за 1 строчку):
Философия урбанистического безвремения
Философия урбанистического безвремения
Философия урбанистического безвремения
Философия урбанистического безвремения

Riff b(play 4 times)

INTRO3:
Здесь законы боевые
Мы для города чужие
Рады видеть нас в стране
Город лишь зациклился в своем огне

I was keept
I might to livin`
I don`t fuck kapituliren
I was cannot get tonight
Fire fire fire fire fire night
Fire fire fire fire fire night
Fire fire fire fire fire night

Riff a:
Философия урбанистического безвремения
Философия урбанистического безвремения
Философия урбанистического безвремения
Философия урбанистического безвремения

Riff b(play 4 times)

INTRO3:
Мрачный город как долина
Психотропная картина
Каждый сам здесь за себя
Это по мозгам психоделия

Индустрия заводская
Ночью город украшает
Нагнетает мрачный ужас
Нафига такой нам этот город нужен
Нафига такой нам этот город нужен
Нафига такой нам этот город нужен

Riff a:
Философия урбанистического безвремения
Философия урбанистического безвремения
Философия урбанистического безвремения
Философия урбанистического безвремения

Riff b(play 4 times)


Текст, аккорды и табулатура для песни "Философия урбанистического безвремения", исполняет "Пурген".
Используемые в песне аккорды можно найти в разделе Как брать аккорды. Аккорды для шестиструнной гитары. Другие песни можно найти на нашем сайте, воспользовавшись алфавитным указателем вверху страницы.


 
Ошибка в тексте? Выделите ошибку и нажмите Ctrl+Enter