Вступление (прослушать полностью песню):
4 струна |-7-7-8-7-7-8-7-7-8-7-7-108 х8 – Чугунный мозг!!!

1---------------------------------------------
2---------------------------------------------
3---------------------------------------10-10-
4-|-7-777-7-777-7-777-7-777-5-555-5-555-5-555-5-555-10-10-
5-|-7-777-7-777-7-777-7-777-5-555-5-555-5-555-5-555--8--8-
6-|-7-777-7-777-7-777-7-777-5-555-5-555-5-555-5-555-------
 
-------------------------------------------------------
-------------------------------------------------------
-10-10-10-10-10-10-10-10-10-10-12-12-12-12-12-12-12-12-
-10-10-10-10-10-10-10-10-10-10-12-12-12-12-12-12-12-12-     
--8--8--8--8--8--8--8--8--8--8-10-10-10-10-10-10-10-10-
-------------------------------------------------------

---------------------|
---------------------|
-12-12-12-12---------|RIFF 1
-12-12-12-12---------|
-10-10-10-10---------|
---------------------|
    
Основная часть:
1-------------------------------------|
2-------------------------------------|
3-------10-10-10-9-9-9-10-10-10-9-9-9-| х 2
4-|-777-555-777-555-10-10-10-9-9-9-10-10-10-9-9-9-|
5-|-777-555-777-555--8--8-–8-7-7-7—-8--8--8-7-7-7-|
6-|-777-555-777-555-------------------------------|

1-------------------|
2-------------------|
3-------------------|  Riff 2
4-|-777-555-777-555-------------|
5-|-777-555-777-555-------------|
6-|-777-555-777-555-------------|
     Словом можно любить,
     словом можно предать,
1-------------------------------|
2-------------------------------|
3-|-10-10-10-9-9-9-10-10-10-9-9-9-----------| Riff 3
4-|-10-10-10-9-9-9-10-10-10-9-9-9-----------|
5-|--8--8--8-7-7-7--8--8--8-7-7-7-----------|
6------------------------------ |
     Словом можно убить
     И свободно продать 

Riff 2
Словом можно поднять,
Riff 2
А потом опустить

Riff 3
Очень сложно без слов
Riff 3 
В этом обществе жить

Припев(RIFF 1): 
Сложнее  убеждать словами
Чем взять насилием в подвале
И чем искать ночами жертву
И давать снотворных нервам.


RIFF 1
Словно бык ты всегда неприятен и груб
У тебя нет друзей и любимых подруг
Вместо образования журналов и книг
Ты решил накачаться и мозг твой поник

Основная часть:
(Riff 2 Riff 3) х 2

Riff 2 
Не на ум сделал ставку
Riff 2
А только на силу

Riff 3
Женщин не можешь
Riff 3
Иметь без насилия

Ведь тебе не дают
Ты теряешь надежду
Избиваешь людей
Отбираешь одежду

Припев.

Чугунный мозг!!!

RIFF 1
Повышай интеллект 
И словарный запас
Поменять свою жизнь
Ты способен сейчас
Ты направь свою силу
В разумный исток
Чтоб от жизни твоей
Хоть какой то был толк

Чугунный мозг!!!


Текст, аккорды и табулатура для песни "Чугунный мозг", исполняет "Пурген".
Используемые в песне аккорды можно найти в разделе Как брать аккорды. Аккорды для шестиструнной гитары. Другие песни можно найти на нашем сайте, воспользовавшись алфавитным указателем вверху страницы.


 
Ошибка в тексте? Выделите ошибку и нажмите Ctrl+Enter