Intro:
-----------------|
-----------------|
-----------------|
|--9-------------------------|
|--7------12------10------9--|
|---------10------8-------7--|

--------------------------------------------------------------------------|
--------------------------------------------------------------------------|
--------------------------------------------------------------------------|
|--9-9-9-9-9-9-7-7--------------------------------------------------------------------|
|--7-7-7-7---------12-12-12-12-12-12-10-10-10-10-10-10-10-10-8-8-----9-9-9-9-9-9-7-7--|
-------10-10-10-10-------------8-8-8-8-------------------7-7-7-7----------|

Стоп, система. Стоп, законы.
Стоп, политик. Стоп, заводы.
Стоп, все деньги. Стоп, все войны.
И проблемы беззаконья.

Анархия. Анархия. Анархия. Анархия.
Анархия. Анархия. А-а-а-а-а-а-а. Анархия.

Стоп, все люди, все границы.
И военные гробницы.
Порно-бизнес и Наркоманы.
И крысинные подвалы.

Interlude: (2 раза)
------------------------------------------------------------------------|
------------------------------------------------------------------------|
------------------------------------------------------------------------|
|--9-9-9-9-9-9-9-9-12-12-12-12-12-12-12-12------------------------------------------|
|--7-7-7-7-7-7-7-7-10-10-10-10-10-10-10-10-10-10-10-10-10-10-10-10-9-9-9-9-9-9-9-9--|
-------------------------------8--8--8--8--8--8--8--8--7-7-7-7-7-7-7-7--|

Стоп, все люди, все границы.
И военные гробницы.
Порно-бизнес и Наркоманы.
И крысиные подвалы.


Текст, аккорды и табулатура для песни "Анархия", исполняет "Пурген".
Используемые в песне аккорды можно найти в разделе Как брать аккорды. Аккорды для шестиструнной гитары. Другие песни можно найти на нашем сайте, воспользовавшись алфавитным указателем вверху страницы.


 
Ошибка в тексте? Выделите ошибку и нажмите Ctrl+Enter