E--------------------|
B--------------------|
G--------------------|
D--------------------|
A--------------------|
E||--0--0--3--4--5----|--0--0--3--4--5----|--0--3--4--5--0--3--4--5--|


                                                        
-------------------------------|
-------------------------------|
--10----9--10----9--|--10------------------|
--10----9--10----9--|--10--|--7------------------------|
--8-----7--8-----7--|--8---|--7------------------------|
--------------------|------|--5----5-5-5-5-5--5--5--5--|


                                                                 
----------------------------------------------------|
----------------------------------------------------|
--7------------------------|--12--------------------------------|
--7------------------------|--12--------------------------------|
--5----5-5-5-5-5--5--5--5--|--10----10-10-10-10-10--10--10--10--|
----------------------------------------------------|


                                                        
-------------------------------------------|
-------------------------------------------|
--9----------------------------------------|
--9------------------10----|--7------------------------|
--7----7-7-7-7-7--7--10----|--7------------------------|
---------------------8-----|--5----5-5-5-5-5--5--5--5--|


                                                                       
----------------------------------------------|
----------------------------------------------|
--7------------------------|--9----------9----------------|
--7------------------------|--9----------9----------|--7----7----7----|
--5----5-5-5-5-5--5--5--5--|--7----7--7--7----7--7--|--7----7----7----|
----------------------------------------|--5----5----5----|


 (*)                                                              
--------------------------------------|
--------------------------------------|
--------------------------------------|
--------------------------------------|
--------------------------------------|
--0--3--4--5--5--5--|--5--5--5--0--3--4--|--5--5--5--5--5--0--|


                                                               
--------------------------------------|
--------------------------------------|
-----------------------10----|--9--10----9--10----|
-----------------------10----|--9--10----9--10----|
-----------------------8-----|--7--8-----7--8-----|
--3--4--5--0--3--4--|--5--0--3--4-----------------|


    куплет                                                  
-----------------------------|
-----------------------------|
|*---------------------------------------|
|*--7----------------------|--7----------------------|
|---7----------------------|--7----------------------|
|---5----5--5--5--5--5--5--|--5----5--5--5--5--5--5--|


                                                      3x
------------------------------------------||
------------------------------------------||
--10-------------------------------------*||
--10----------------------|--10----------------------*||
--8-----8--8--8--8--8--8--|--10-----------------------||
--------------------------|--8-----8--8--8--8--8--8---||


    припев                                                    
-------------------------------------------|
-------------------------------------------|
---------------------------|--7------------------------|
--7------------------------|--7------------------------|
--7------------------------|--5----5-5-5-5-5--5--5--5--|
--5----5-5-5-5-5--5--5--5------------------|


                                                                 
----------------------------------------------------|
----------------------------------------------------|
--12--------------------------------|--9------------------------|
--12--------------------------------|--9------------------10----|
--10----10-10-10-10-10--10--10--10--|--7----7-7-7-7-7--7--10----|
----------------------------------------------8-----|


                                                        
-------------------------------------------|
-------------------------------------------|
---------------------------|--7------------------------|
--7------------------------|--7------------------------|
--7------------------------|--5----5-5-5-5-5--5--5--5--|
--5----5-5-5-5-5--5--5--5------------------|


                                            
------------------------------||
------------------------------||
--9----------9----------------||
--9----------9----------|--7----7----7----||
--7----7--7--7----7--7--|--7----7----7----||
------------------------|--5----5----5----||

Дальше играется часть (*)

куплет

припев

проигрыш = куплет


Текст, аккорды и табулатура для песни "90-60-90", исполняет "Пурген".
Используемые в песне аккорды можно найти в разделе Как брать аккорды. Аккорды для шестиструнной гитары. Другие песни можно найти на нашем сайте, воспользовавшись алфавитным указателем вверху страницы.


 
Ошибка в тексте? Выделите ошибку и нажмите Ctrl+Enter