Вступление:
E-----------------------------------------------------
B-----------------------------------------------------
G-----------------------------------------------------
D-------------------------------------------9-8-9-8-9-
A-5-5-5-7---5-5-5-7---5-5-5-7-5-5-5-7-5-5-5-7-6-7-6-7-
E-3-3-3-5---3-3-3-5---3-3-3-5-3-3-3-5-3-3-3-----------

E----------------------------------------------------------------------
B----------------------------------------------------------------------
G----------------------------------------------------------------------
D-------------------7-7-7-7----------------------------------7-7-------
A-5-5-5-5--7-7-7-7--5-5-5-5--7-7-7-7--5-5--5-5-5-5--7-7-7-7--5-5-7-7-7-
E-3-3-3-3--5-5-5-5-----------5-5-5-5--3-3--3-3-3-3--5-5-5-5------5-5-5-

E-------------------------------------------------------------------
B-------------------------------------------------------------------
G-------------------------------------------------------------------
D---------------------------------------------------------9-8-9-8-9-
A-5-5-5-7-7-7-7-7--5-5-5-7-7-7-7-7--5-5-5-7-5-5-5-7-5-5-5-7-6-7-6-7-
E-3-3-3-5-5-5-5-5--3-3-3-5-5-5-5-5--3-3-3-5-3-3-3-5-3-3-3-----------

Дальше идет куплет:
E----------------------------------------------------
B----------------------------------------------------
G----------------------------------------------------
D----------------------------10-10-10-10-------------   
A-7-7-7-7-7-7-76-7-7-7-7-7--8--8--8--8--10-10-10-10-  
E-5-5-5-5-5-5-54-5-5-5-5-5--------------8--8--8--8--   

Припев:
E-------------------------------
B-------------------------------
G-----------------7-7-7-7-------
D---------7-7-7-7-5-5-5-5-------
A-7-7-7-7-5-5-5-5---------9-9-9-
E-5-5-5-5-----------------9-9-9-
 

Здесь вторая часть вступления, а потом второй куплет и припев.

Проигрыш после второго припева: сначала третья часть вступления,
а потом аккорды с куплетов.


Текст, аккорды и табулатура для песни "90-60-90", исполняет "Пурген".
Используемые в песне аккорды можно найти в разделе Как брать аккорды. Аккорды для шестиструнной гитары. Другие песни можно найти на нашем сайте, воспользовавшись алфавитным указателем вверху страницы.


 
Ошибка в тексте? Выделите ошибку и нажмите Ctrl+Enter