-------------------------------------------------------------------------------
www.punchkids.com
			     Stop - Punchline
-------------------------------------------------------------------------------
Tabbed by:Eric Pihl
Email:

Tuning:standard tuning

e|---------------------------------------------------------------------------|
B|---------------------------------------------------------------------------|
G|---------------------------------------------------------------------------|
D|3~------5~------7~------3~-----5~----77777777777777------------------------|
A|3~------5~------7~------3~-----5~----77777777777777------------------------|
E|1~------3~------5~------1~-----3~----55555555555555------------------------|
2 times
e|---------------------------------------------------------------------------|
B|---------------------------------------------------------------------------|
G|---------------------------------------------------------------------------|
D|333333-55555555-7777777777-------------------------------------------------|
A|333333-55555555-7777777777-------------------------------------------------|
E|111111-33333333-5555555555-------------------------------------------------|
2 times
e|---------------------------------------------------------------------------|
B|---------------------------------------------------------------------------|
G|---------------------------------------------------------------------------|
D|55-xxxxxx-77-xxxxxx-77-xxxxxx----------------------------------------------|
A|55-xxxxxx-77-xxxxxx-77-xxxxxx----------------------------------------------|
E|33-xxxxxx-55-xxxxxx-55-xxxxxx----------------------------------------------|
4 times
e|---------------------------------------------------------------------------|
B|---------------------------------------------------------------------------|
G|---------------------------------------------------------------------------|
D|7777-5555-33333333---------------------------------------------------------|
A|7777-5555-33333333---------------------------------------------------------|
E|5555-3333-11111111---------------------------------------------------------|
2 times
e|---------------------------------------------------------------------------|
B|---------------------------------------------------------------------------|
G|---------------------------------------------------------------------------|
D|333333-55555555-7777777777-------------------------------------------------|
A|333333-55555555-7777777777-------------------------------------------------|
E|111111-33333333-5555555555-------------------------------------------------|
2 times
e|---------------------------------------------------------------------------|
B|---------------------------------------------------------------------------|
G|---------------------------------------------------------------------------|
D|55-xxxxxx-77-xxxxxx-77-xxxxxx----------------------------------------------|
A|55-xxxxxx-77-xxxxxx-77-xxxxxx----------------------------------------------|
E|33-xxxxxx-55-xxxxxx-55-xxxxxx----------------------------------------------|
8 times
e|---------------------------------------------------------------------------|
B|---------------------------------------------------------------------------|
G|---------------------------------------------------------------------------|
D|7777-5555-33333333---------------------------------------------------------|
A|7777-5555-33333333---------------------------------------------------------|
E|5555-3333-11111111---------------------------------------------------------|
2 times
e|---------------------------------------------------------------------------|
B|---------------------------------------------------------------------------|
G|---------------------------------------------------------------------------|
D|333333-55555555-7777777777-------------------------------------------------|
A|333333-55555555-7777777777-------------------------------------------------|
E|111111-33333333-5555555555-------------------------------------------------|
do this the rest of the time
e|---------------------------------------------------------------------------|
B|---------------------------------------------------------------------------|
G|---------------------------------------------------------------------------|
D|7777-5555-33333333---------------------------------------------------------|
A|7777-5555-33333333---------------------------------------------------------|
E|5555-3333-11111111---------------------------------------------------------|
this is pretty much right just listen to the song its easy



| /  slide up
|   slide down
| h  hammer-on
| p  pull-off
| ~  vibrato
| +  harmonic
| x  Mute note
===============================================================================


Текст, аккорды и табулатура для песни "Stop", исполняет "Punchline".
Используемые в песне аккорды можно найти в разделе Как брать аккорды. Аккорды для шестиструнной гитары. Другие песни можно найти на нашем сайте, воспользовавшись алфавитным указателем вверху страницы.


 
Ошибка в тексте? Выделите ошибку и нажмите Ctrl+Enter