-------------------------------------------------------------------------------
			     Open Up - Punchline
-------------------------------------------------------------------------------
Tabbed by:eric pihl	
Email:[email protected]	

Tuning:standard
Alright you guys can figure out the strumming because i'm too lazy to put it down.
Intro
e|---------------------------------------------------------------------------|
B|---------------------------------------------------------------------------|
G|2--4--6--------------------------------------------------------------------|
D|2--4--6--------------------------------------------------------------------|
A|0--2--4--------------------------------------------------------------------|
E|---------------------------------------------------------------------------|
Verse	
e|---------------------------------------------------------------------------|
B|---------------------------------------------------------------------------|
G|6--2-----------------------------------------------------------------------|
D|6--2-----------------------------------------------------------------------|
A|4--0-----------------------------------------------------------------------|
E|---------------------------------------------------------------------------|
guitar only part
e|---------------------------------------------------------------------------|
B|---------------------------------------------------------------------------|
G|6-8-9-2-4------------------------------------------------------------------|
D|6-8-9-2-4-6/4--------------------------------------------------------------|
A|4-6-7-0-2-6/4--------------------------------------------------------------|
E|----------4/2--------------------------------------------------------------|
Just put these chords into the rest of the song and it will work out.  But ill 
try to figure the rest out for you guys.

| /  slide up
|   slide down
| h  hammer-on
| p  pull-off
| ~  vibrato
| +  harmonic
| x  Mute note
===============================================================================


Текст, аккорды и табулатура для песни "Open Up", исполняет "Punchline".
Используемые в песне аккорды можно найти в разделе Как брать аккорды. Аккорды для шестиструнной гитары. Другие песни можно найти на нашем сайте, воспользовавшись алфавитным указателем вверху страницы.


 
Ошибка в тексте? Выделите ошибку и нажмите Ctrl+Enter