-------------------------------------------------------------------------------
			     Soberbeah - Pulley
-------------------------------------------------------------------------------
Tabbed by: Dave Elyzium
Email: [email protected]

::::::::::::::::::::::::::::::::::::

After failing to locate Pulley tabs on the net, I decided to try and write my
own...This is my first attempt at a tab of any kind so I'm hoping you will all
mail me with your corrections or advice or questions if need be...

The song sounds fine in standard tuning but to play along to the CD tune the
whole guitar tuned down a semitone.

I'm not 100% sure on some parts of the TAB (the fast section after the second
chorus in particular) so listen to the record and you should be able to work it out!

*******************************************
Tuning: E A D G B E (Tune down 1 half step)
*******************************************

Intro:

(Play with heavy palm muting and increase power whilst slowly releasing mute
towards the end of the second repeat)

e|--------------------------------|--------------------------------|
B|--------------------------------|--------------------------------|
G|--------------------------------|--------------------------------|
D|9-9-9-9-9-9-9-9-9-9-9-9-9-9-9-9-|7-7-7-7-7-7-7-7-7-7-7-7-7-7-7-7-|
A|7-7-7-7-7-7-7-7-7-7-7-7-7-7-7-7-|5-5-5-5-5-5-5-5-5-5-5-5-5-5-5-5-|
E|--------------------------------|--------------------------------|
pm..................................................................


e|--------------------------------|--------------------------------|
B|--------------------------------|--------------------------------|
G|--------------------------------|--------------------------------|
D|--------------------------------|--------------------------------| 
A|7-7-7-7-7-7-7-7-7-7-7-7-7-7-7-7-|2-2-2-2-2-2-2-2-2-2-2-2-2-2-2-2-|
E|5-5-5-5-5-5-5-5-5-5-5-5-5-5-5-5-|0-0-0-0-0-0-0-0-0-0-0-0-0-0-0-0-|
pm.................................................................





Chorus: 

e|--------------------------------|--------------------------------|
B|--------------------------------|--------------------------------|
G|7-7---7-7-7---7-----------------|9-9---9-9-9---9-9-9---9-9-9---9-|
D|7-7---7-7-7---7-7-7---7-7-7---7-|9-9---9-9-9---9-9-9---9-9-9---9-|
A|5-5---5-5-5---5-7-7---7-7-7---7-|7-7---7-7-7---7-7-7---7-7-7---7-|
E|----------------5-5---5-5-5---5-|--------------------------------|




Chorus b: 

e|--------------------------------|
B|--------------------------------|
G|7-7---7-7-7---7-----------------|
D|7-7---7-7-7---7-7---------------| 
A|5-5---5-5-5---5-7---------------|
E|----------------5---------------|





Riff 1:

e|--------------------------------|--------------------------------|
B|--------------------------------|--------------------------------|
G|--------------------------------|--------------------------------|
D|----9---9-----9---9---7---6---6-|----7---7-----7---7---5---4---4-|
A|7-7-7-7-7-7-7-7-7-7-7-7-7-7---7-|5-5-5-5-5-5-5-5-5-5-5-5-5-5---5-|
E|--------------------------------|--------------------------------|
pm..................................................................


e|--------------------------------|--------------------------------|
B|--------------------------------|--------------------------------|
G|--------------------------------|--------------------------------|
D|--------------------------------|----9---9-----9---9---7---6---6-|
A|----7---7-----7---7---5---4---4-|7-7-7-7-7-7-7-7-7-7-7-7-7-7---7-|
E|5-5-5-5-5-5-5-5-5-5-5-5-5-5---5-|--------------------------------|
pm..................................................................





Riff 1b:

e|--------------------------------|--------------------------------|
B|--------------------------------|--------------------------------|
G|--------------------------------|--------------------------------|
D|----9---9-----9---9---7---6---6-|----7---7-----7---7---5---4---4-|
A|7-7-7-7-7-7-7-7-7-7-7-7-7-7---7-|5-5-5-5-5-5-5-5-5-5-5-5-5-5---5-|
E|--------------------------------|--------------------------------|
pm.................................................................



e|--------------------------------|--------------------------------|
B|--------------------------------|--------------------------------|
G|--------------------------------|--------------------------------|
D|--------------------------------|----9---9-----9---9---9---9---9-|
A|----7---7-----7---7---5---4---4-|7-7-7-7-7-7-7-7-7-7-7-7-7-7---7-|
E|5-5-5-5-5-5-5-5-5-5-5-5-5-5---5-|--------------------------------|
pm...............................................................






Verse 1:

e|----------------------------------|----------------------------------|
B|----------------------------------|----------------------------------|
G|9-9---9---9---9---9-9---9---9---9-|7-7---7---7---7---7-7---7---7---7-|
D|9-9---9---9---9---9-9---9---9---9-|7-7---7---7---7---7-7---7---7---7-|
A|7-7---7---7---7---7-7---7---7---7-|5-5---5---5---5---5-5---5---5---5-|
E|----------------------------------|----------------------------------|

e|----------------------------------|----------------------------------|
B|----------------------------------|----------------------------------|
G|----------------------------------|9-9---9---9---9---9-9---9---9---9-|
D|7-7---7---7---7---7-7---7---7---7-|9-9---9---9---9---9-9---9---9---9-|
A|7-7---7---7---7---7-7---7---7---7-|7-7---7---7---7---7-7---7---7---7-|
E|5-5---5---5---5---5-5---5---5---5-|----------------------------------|






Riff 2a:

(Listen to the record to work out the rhythm, I'm not 100% sure about this part)

e|------------------------------------|
B|------------------------------------|
G|------------------------------------|
D|--9-7-9---9-7-9---9-7-9---9---9---7-|
A|--7-5-7---7-5-7---7-5-7---9---9---7-|
E|0-0-0-0-0-0-0-0-0-0-0-0-0-7---7---5-|
pm...................................




Riff 2b

e|------------------------------------|
B|------------------------------------|
G|--------------------------9---7---6-|
D|--9-7-9---9-7-9---9-7-9---7---5---4-|
A|--7-5-7---7-5-7---7-5-7-------------|
E|0-0-0-0-0-0-0-0-0-0-0-0-0-----------|
pm...................................




Riff 2c

e|----------------------------|
B|----------------------------|
G|----------------------------|
D|9-9---9---9---9-7-7---7---7-|
A|9-9---9---9---9-7-7---7---7-|
E|7-7---7---7---7-5-5---5---5-|



Verse 2:

e|----------------------------------|--------------------------------|
B|----------------------------------|--------------------------------|
G|9-9---9---9---9---9-9---9---9---9-|9-9---9---9---9-----------------|
D|9-9---9---9---9---9-9---9---9---9-|7-7---7---7---7-7-7---7---7---7-|
A|7-7---7---7---7---7-7---7---7---7-|----------------7-7---7---7---7-|
E|----------------------------------|----------------5-5---5---5---5-|







Outro:

(Wait a few seconds then play this variation on the intro, letting the last notes ring..)

e|--------------------------------|--------------------------------|
B|--------------------------------|--------------------------------|
G|--------------------------------|--------------------------------|
D|9-9-9-9-9-9-9-9-9-9-9-9-9-9-9-9-|7-7-7-7-7-7-7-7-7-7-7-7-7-7-7-7-|
A|7-7-7-7-7-7-7-7-7-7-7-7-7-7-7-7-|5-5-5-5-5-5-5-5-5-5-5-5-5-5-5-5-|
E|--------------------------------|--------------------------------|
  pm..............................................................

e|--------------------------------|---------------------------------|
B|--------------------------------|---------------------------------|
G|--------------------------------|---------------------------------|
D|--------------------------------|---------------------------------|
A|7-7-7-7-7-7-7-7-7-7-7-7-7-7-7-7-|2--------------------------------|
E|5-5-5-5-5-5-5-5-5-5-5-5-5-5-5-5-|0--------------------------------|
  pm..............................




**************
Song structure
**************

Intro (x2)
Chorus (x3)
Chorus b 
Riff 1
Riff 1b
Verse 1
Chorus (x3)
Chorus b
Riff 2a
Riff 2b
Riff 2a
Riff 2c
Riff 2a
Riff 2b
Riff 2a
Riff 2c
Verse 2 (x2)
Verse 2 b
Outro
===============================================


Текст, аккорды и табулатура для песни "Soberbeah", исполняет "Pulley".
Используемые в песне аккорды можно найти в разделе Как брать аккорды. Аккорды для шестиструнной гитары. Другие песни можно найти на нашем сайте, воспользовавшись алфавитным указателем вверху страницы.


 
Ошибка в тексте? Выделите ошибку и нажмите Ctrl+Enter